Song name
# A B C D E F G H I J K L M N O P Q R S T U V W X Y Z

Hatebreed - Doomsayer tab

Here ya go Drop C

Riff 1
D-----------------------------------------------------------------|
A-----------------------------------------------------------------|
F-----------------------------------------------------------------|
C-----------------------------------------------------------------|
G-------------------9-7-9-10------------------------8-5-8-9-------|
C-0-0-0-0-0-0----------------------0-0-0-0-0-0--------------------|
PM. . . . . .                      . . . . . .

Riff 2      
D-----------------------------------------------------------------|
A-----------------------------------------------------------------|
F-----------------------------------------------------------------|
C-----------------------------------------------------------------|
G-------------0----------------3--------9--8--6-------------------|
C-0-0-0-0-0-0-0----0-0-0-0-0-0-3--0-----9--8--6-------------------|
PM. . . . . .      . . . . . .    .

Riff 3
D-----------------------------------------------------------------|
A-----------------------------------------------------------------|
F-----------------------------------------------------------------|
C---------------0-------------------------------------------------|
G---------------0-------------------------------------------------|
C-0-0-0-0-0-0-0-0----0-0-0-0-0-0-0-0-0----------------------------|
  . . . . . . .      . . . . . . . . .

Riff 4      
D-----------------------------------------------------------------|
A-----------------------------------------------------------------|
F-----------------------------------------------------------------|
C-----------------------------------------------------------------|
G-----------------3----------------6----------------5--8----------|
C----3-3-3-3-3-3--3---6-6-6-6-6-6--6---5-5-5-5-5-5--5--8----------|
     . . . . . .      . . . . . .      . . . . . .

Riff 5
D-----------------------------------------------------------------|
A-----------------------------------------------------------------|
F-----------------------------------------------------------------|
C--------------------------------------------(0)------------------|
G-0-0--3-0-3--0-0-0-0-0--3-0-3-3-------------(0)------------------|
C-0-0--3-0-3--0-0-0-0-0--3-0-3-3-------------(0)------------------|
  . .         . . . . .

Riff 5
D-----------------------------------------------------------------|
A-----------------------------------------------------------------|
F-----------------------------------------------------------------|
C-----------------------------------------------------------------|
G---0-0---0-0--------------------0-0-1-4-3---------0~-------------|
C---0-0---0-0--0-0-0-0-0-0-0-----0-0-1-4-3---------0--------------|
    . .   .  .  . . . . . . .
Tap to rate this tab
 
# A B C D E F G H I J K L M N O P Q R S T U V W X Y Z