Hatebreed - Smash Your Enemies tab

Artist: Hatebreed
Album: Perseverance
Song: Smash Your Enemies

Tuning: Drop C (CGCFAD)

/ = Slide up to
. = Palm Mute

|-    -||
|o    o||
|-    -||
|-    -|| = Repeat section
|-    -||
|o    o||
|-    -||


D|--------------------------------------------------------------||-----||
A|o------------------------------------------------------------o||-----||
F|--------------------------------------------------------------||-----||
C|----0--0-0-1-0---0-0-0-/6-0--------0-0-0-1-0--0-5-6-5-3-5-3---||--0--|| 
G|o---0--0-0-1-0---0-0-0-/6-0--------0-0-0-1-0--0-5-6-5-3-5-3--o||--0--|| 
C|----0--0-0-1-0---0-0-0-/6-0--------0-0-0-1-0--0-5-6-5-3-5-3---||--0--|| 
         . .       . . .             . . .        . . . . . .
 				   	      

D|---------------------------------------------------|
A|o-------------------------------------------------o|
F|---------------------------------------------------|
C|----6-----------------------------8-8--8-3-3--3----|
G|o---6-----------------------------8-8--8-3-3--3---o|
C|----6-0-0-0-0-0-0-0-0-0-0-0-0-0-0-8-8--8-3-3--3----|
        . . . . . . . . . . . . . .			

D|--------------------------------------------------||-----||
A|o------------------------------------------------o||-----||
F|--------------------------------------------------||-----||
C|----6-----------------------------8-8--8-3-3--3---||--0--||
G|o---6-----------------------------8-8--8-3-3--3--o||--0--||
C|----6-----------------------------8-8--8-3-3--3---||--0--||

D|-----------------------||---||
A|o---------------------o||---||
F|-----------------------||---||
C|----1-0-1-0-3-4-3-2----||-0-||
G|o---1-0-1-0-3-4-3-2---o||-0-||
C|----1-0-1-0-3-4-3-2----||-0-||
Tap to rate this tab
 
# A B C D E F G H I J K L M N O P Q R S T U V W X Y Z