Song name
# A B C D E F G H I J K L M N O P Q R S T U V W X Y Z

Hatebreed - Destroy Everything tab

Tuning: CFBbEbGC
Tabbed by: Big_G41
I tabbed this 100% by ear so if it's off in any way, let me know! \m/

|-------------------------|--------------------------------|
|-------------------------|--------------------------------|
|-------------------------|--------------------------------|
|-------------------------|--------------------------------|
|--2--2-2-2--2-2-2--2-2-2-|----------6---------6----6--3h5-|
|--0--0-0-0--0-0-0--0-0-0-|--0-0-0-0---0-0-0-0---0-0--0----|
      x x x  x x x  x x x    x x x x   x x x x   x x  x
|-------------------------|--------------------------------|
|-------------------------|--------------------------------|
|-------------------------|--------------------------------|
|-------------------------|--------------------------------|
|--2-2-2--2-2-2--2-2-2----|---------6----------6----6--3h5-|
|--0-0-0--0-0-0--0-0-0----|--0-0-0-0---0-0-0-0---0-0--0----|
   x x x  x x x  x x x       x x x x   x x x x   x x  x
|-------------------------|
|-------------------------|
|-------------------------|
|------------5---6---5----| (X3)
|--2-2-2--2--5-0-6-0-5----|
|--0-0-0--0--3-0-4-0-3----|
   x x x       x   x
|---------------------------------|
|---------------------------------|
|---------------------------------|
|---------------------------------|(X3) (after playing above tab three times
|----------6---------6----6--3h5--|      add this)
|--0-0-0-0---0-0-0-0---0-0--0-----|
   x x x x   x x x x   x x  x
|-------------------|----------------|
|-------------------|----------------|
|-------------------|----------------|
|--5-5-5----5-5-5---|--5-5-5---5-5---|(X4)
|--5-5-5-2--5-5-5-2-|--5-5-5-2-5-5-2-|
|--4-4-4-0--3-3-3-0-|--4-4-4-0-3-3-0-|
   (slower)              (faster)
|-----------------------------------|
|-----------------------------------|
|-----------------------------------|
|-----------------------------------|(X2)
|--2----------6---------6-----6-3h5-|
|--0--0-0-0-0---0-0-0-0---0-0--0----|
      x x x x   x x x x   x x  x
Tap to rate this tab
# A B C D E F G H I J K L M N O P Q R S T U V W X Y Z