Song name
# A B C D E F G H I J K L M N O P Q R S T U V W X Y Z

Hatebreed - Everyone Bleeds Now tab

Song: Everyone Bleeds Now
Band: Hatebreed
Album: The Rise of Brutality
Genre: Hardcore Punk, Metalcore
Tuning: B Tuning (I am tabbing in 7-string but it works on 6-string as well)

0:00
E-------------------------------|--------------------------------|
B-------------------------------|--------------------------------|
G-------------------------------|--------------------------------|
D-play 3x-----------------------|--------------------------------|
A-3---3---2-2---6---6---5-5---5-|3---3---2-2---666---6---5---5---|
E-3---3---2-2---6---6---5-5---5-|3---3---2-2-------7---7---6---6-|
B-1---1---0-0---4---4---3-3---3-|1---1---0-0---------------------|

0:38
E-------------------------------------------------------------|
B-------------------------------------------------------------|
G---------7---6-5---------------------6-7---6-5---------------|
D---------7---6-5-----7---------------6-7---6-5-----7---------|
A-6-5-5-5-5---4-3-----7---6-3-6-2-2-2-4-5---4-3-----7---6-3-6-|
E-6-5-5-5-------------5---6-3-6-2-2-2---------------5---6-3-6-|
B-4-3-3-3-----------------4-1-4-0-0-0-------------------4-1-4-|
                                  . .

0:43
E-----------------------------------------------------------------|
B-----------------------------------------------------------------|
G-4-------4-----------------------4-------4-----------------------|
D-4-------4-----------------------4-------4-----------------------|
A-2-------2---2---3-555---5---6-5-2-------2---2---3-996---5---6-5-|
E-------------2---3-----6---6-----------------2---3-----7---7-----|
B-------------0---1---------------------------0---1---------------|

0:50
E-------------------------------------------------------------|
B-------------------------------------------------------------|
G---------7---6-5---------------------6-7---6-5---------------|
D---------7---6-5-----7---------------6-7---6-5-----7---------|
A-6-5-5-5-5---4-3-----7---6-3-6-2-2-2-4-5---4-3-----7---6-3-6-|
E-6-5-5-5-------------5---6-3-6-2-2-2---------------5---6-3-6-|
B-4-3-3-3-----------------4-1-4-0-0-0-------------------4-1-4-|
                                  . .
0:55
E-------------------------------------------------------------|
B-------------------------------------------------------------|
G-------------------------------------------------------------|
D-------------------------------------------------------------|
A-2~------------------------------------------2-22-2-2-22-2-2-|
E-2~------------------------------------------2-22-2-2-22-2-2-|
B-0~------------------------------------------0-00-0-0-00-0-0-|
                                              . .. . . .. . .

1:07
E-------------------------------|--------------------------------|
B-------------------------------|--------------------------------|
G-------------------------------|--------------------------------|
D-play 3x-----------------------|--------------------------------|
A-3---3---2-2---6---6---5-5---5-|3---3---2-2---666---6---5---5---|
E-3---3---2-2---6---6---5-5---5-|3---3---2-2-------7---7---6---6-|
B-1---1---0-0---4---4---3-3---3-|1---1---0-0---------------------|

1:41
E-------------------------------------------------------------|
B-------------------------------------------------------------|
G---------7---6-5---------------------6-7---6-5---------------|
D---------7---6-5-----7---------------6-7---6-5-----7---------|
A-6-5-5-5-5---4-3-----7---6-3-6-2-2-2-4-5---4-3-----7---6-3-6-|
E-6-5-5-5-------------5---6-3-6-2-2-2---------------5---6-3-6-|
B-4-3-3-3-----------------4-1-4-0-0-0-------------------4-1-4-|
                                  . .

1:47
E-----------------------------------------------------------------|
B-----------------------------------------------------------------|
G-4-------4-----------------------4-------4-----------------------|
D-4-------4-----------------------4-------4-----------------------|
A-2-------2---2---3-555---5---6-5-2-------2---2---3-996---5---6-5-|
E-------------2---3-----6---6-----------------2---3-----7---7-----|
B-------------0---1---------------------------0---1---------------|

1:53
E-------------------------------------------------------------|
B-------------------------------------------------------------|
G---------7---6-5---------------------6-7---6-5---------------|
D---------7---6-5-----7---------------6-7---6-5-----7---------|
A-6-5-5-5-5---4-3-----7---6-3-6-2-2-2-4-5---4-3-----7---6-3-6-|
E-6-5-5-5-------------5---6-3-6-2-2-2---------------5---6-3-6-|
B-4-3-3-3-----------------4-1-4-0-0-0-------------------4-1-4-|
                                  . .

1:58
E---------------------------------------------------------|
B---------------------------------------------------------|
G---------------------------------------------------------|
D---------------------------------------------------------|
A-2-22-22-------2-8-2-5-2-3-2-2-22-22-------2-6-2-5-2-3-2-|
E-2-22-22-------2-8-2-5-2-3-2-2-22-22-------2-6-2-5-2-3-2-|
B-0-00-00-------0-6-0-3-0-1-0-0-00-00-------0-4-0-3-0-1-0-|
  . .. ..       . . . . . . . . .. ..       . . . . . . .

2:04
E-------------------------------------------------------------|
B-------------------------------------------------------------|
G-------------------------------------------------------------|
D-------------------------------------------------------------|
A-2-22-22-------2-8-2-5-2-3-2-2~22-22-2~------2~------2~------|
E-2-22-22-------2-8-2-5-2-3-2-2~22-22-2~------2~------2~------|
B-0-00-00-------0-6-0-3-0-1-0-0-00-00-0~------0~------0~------|
  . .. ..       . . . . . . . . .. .. .       .       .

2:10
E---------------------------------------------------------|
B---------------------------------------------------------|
G---------------------------------------------------------|
D---------------------------------------------------------|
A-2-22-22-------2-8-2-5-2-3-2-2-22-22-------2-6-2-5-2-3-2-|
E-2-22-22-------2-8-2-5-2-3-2-2-22-22-------2-6-2-5-2-3-2-|
B-0-00-00-------0-6-0-3-0-1-0-0-00-00-------0-4-0-3-0-1-0-|
  . .. ..       . . . . . . . . .. ..       . . . . . . .

2:16
E-----------------------------------------|
B-------------------------------------15\-|
G-----------------------------------------|
D-----------------------------------------|
A-2-22-22-------2-8-2-5-2-3-2-2-22-22-----|
E-2-22-22-------2-8-2-5-2-3-2-2-22-22-----|
B-0-00-00-------0-6-0-3-0-1-0-0-00-00-----|
  . .. ..       . . . . . . . . .. ..

2:22
E---------------------------------------------------------|
B---------------------------------------------------------|
G---------------------------------------------------------|
D---------------------------------------------------------|
A-2-22-22-------2-8-2-5-2-3-2-2-22-22-------2-6-2-5-2-3-2-|
E-2-22-22-------2-8-2-5-2-3-2-2-22-22-------2-6-2-5-2-3-2-|
B-0-00-00-------0-6-0-3-0-1-0-0-00-00-------0-4-0-3-0-1-0-|
  . .. ..       . . . . . . . . .. ..       . . . . . . .

2:28
E-------------------------------------15\-|
B-----------------------------------------|
G-----------------------------------------|
D-----------------------------------------|
A-2-22-22-------2-8-2-5-2-3-2-2-22-22-----|
E-2-22-22-------2-8-2-5-2-3-2-2-22-22-----|
B-0-00-00-------0-6-0-3-0-1-0-0-00-00-----|
  . .. ..       . . . . . . . . .. ..

2:37 (slower)
E---------------------------------------------------------|
B---------------------------------------------------------|
G---------------------------------------------------------|
D---------------------------------------------------------|
A-2-22-22-------2-8-2-5-2-3-2-2-22-22-------2-6-2-5-2-3-2-|
E-2-22-22-------2-8-2-5-2-3-2-2-22-22-------2-6-2-5-2-3-2-|
B-0-00-00-------0-6-0-3-0-1-0-0-00-00-------0-4-0-3-0-1-0-|
  . .. ..       . . . . . . . . .. ..       . . . . . . .

2:43
E-----------------------------------------------------------------|
B-----------------------------------------------------------------|
G-----------------------------------------------------------------|
D-----------------------------------------------------------------|
A-2-22-22-------2-8-2-5-2-3-2-2-22-22-------996---5---6-5-2-22-22-|
E-2-22-22-------2-8-2-5-2-3-2-2-22-22-----------7---7-----2-22-22-|
B-0-00-00-------0-6-0-3-0-1-0-0-00-00---------------------0-00-00-|
  . .. ..       . . . . . . . . .. ..                     . .. ..

And that's it!
Tap to rate this tab
# A B C D E F G H I J K L M N O P Q R S T U V W X Y Z