Song name
# A B C D E F G H I J K L M N O P Q R S T U V W X Y Z

Hatebreed - I Will Be Heard tab

Hatebreed
I Will Be Heard

. = palm mute
X = pick slide
Tuning: standard down 2 steps (C F Bb Eb G C)

(Bass Intro)
Main Riff x4
Riff A x1
Verse x4
Chorus x4
Bridge
Bass Solo
Main Riff x4
Verse x4
Chorus x4
Outro

MAIN RIFF
|------------------------------------------------------------|
|------------------------------------------------------------|
|------------------------------------------------------------|
|------------------------------------------------------------|
|2---5-3-2-3---5-2---5-3-2-3---5-2---5-3-2-3---5-2---2-2-2-2-|
|0---3-1-0-1---3-0---3-1-0-1---3-0---3-1-0-1---3-0---0-0-0-0-|
                                                     . . . .
RIFF A
|---------||------------------|
|---------||------------------|
|---------||------------------|
|---------||--------5---------|
|5-7-5-8--||--2-----3-----2---|
|3-5-3-6--||0-0---0-----0-0---|
            .     .     .

VERSE      |1.                     |2.                    |
|---------||----------------------||----------------------|
|---------||----------------------||----------------------|
|---------||----------------------||----------------------|
|---------||--------5-------------||----------------------|
|5-7-5-8--||--2-----3-----2-------||--2-----3-----2-------|
|3-5-3-6--||0-0---0-----0-0---0-0-||0-0---0-1---0-0---0-0-|
            .     .     .     . .   .     .     .     . .
CHORUS
|---------------------------------------------------------------|
|---------------------------------------------------------------|
|---------------------------------------------------------------|
|---------------------------------------------------------------|
|222-2-2-2-2------222-2-2-2-2------222-2-2-2-2------3-2-3-6-5-3-|
|000-0-0-0-0------000-0-0-0-0------000-0-0-0-0------1-0-1-4-3-1-|
 ... . . . .      ... . . . .      ... . . . .

BRIDGE
|----------------------------------|
|----------------------------------|
|----------------------------------|
|9----------10-------12---10--12---|x3
|7----------8--------10---8---10---|
|----------------------------------|

|----------------------------------------------------------------|
|----------------------------------------------------------------|
|----------------------------------------------------------------|
|----------------------------------------------------------------|x2
|2-2-2-2-2-2-2-2-2-2-2-2-2-2-2-2-3-3-3-3-3-3-3-3-5-5-5-5-5-5-5-5-|
|0-0-0-0-0-0-0-0-0-0-0-0-0-0-0-0-1-1-1-1-1-1-1-1-3-3-3-3-3-3-3-3-|
 . . . . . . . . . . . . . . . . . . . . . . . . . . . . . . . .
BASS SOLO
|----------------------------------------------------|
|----------------------------------------------------|
|----------------------------------------------------|
|----------------------------------------------------|
|2---------------------------------------------------|
|0----------------------------------------------X////|

OUTRO
|---------|
|---------|
|---------|
|2--2--2--|
|2--2--2--|
|0--0--0--|

thats it enjoy

Tap to rate this tab
# A B C D E F G H I J K L M N O P Q R S T U V W X Y Z