Song name
# A B C D E F G H I J K L M N O P Q R S T U V W X Y Z

Hatebreed - Proven tab

Tuning Drop C (CGCFAD)

  |-----------------------------------------------------------------|
  |-----------------------------------------------------------------|
  |-----------------------------------------------------------------|
  |-0-------0-------0-------0-------0-------0-------0---------------|
  |-0-------0-------0-------0-------0-------0-------0-------X\------|
  |-0-------0-------0-------0-------0-------0-------0---------------|

  |---------------------------------|
  |---------------------------------|
  |-----------------------------3/6-|
  |-1-p-0---3-p-0---1-p-0---3p0-1/4-|
  |-1-p-0---3-p-0---1-p-0---3p0-----|
  |-1-p-0---3-p-0---1-p-0---3p0-----|
                            |
                         end here on 4th time


  |--------|
  |--------|
  |--------|
  |-0-0----|
  |-0-0----|
  |-0-0----|
    .

  |---------------------------------|
  |---------------------------------|
  |-----------------------3/6-------|
  |-0-3-0---0-0-0---0-3p0-1/4-3-0---|
  |-0-3-0---0-0-0---0-3p0-----3-0---|
  |-0-3-0---0-0-0---0-3p0-----3-0---|
    . .     . .     .       |
                         end here on 8th time

  |---------------------------------|
  |---------------------------------|
  |---------------------------------|
  |---------------------------------|
  |-0-------4-------1-------5-4---1-|
  |-0-------6-------3-------7-6---3-|

  |--------|
  |--------|
  |--------|
  |-0------| let ring
  |-0------|
  |-0------|

  |------------------------------------------------------------------|
  |------------------------------------------------------------------|
  |------------------------------------------------------------------|
  |------------------------------------------------------------------|
  |---------5-8-------------5-8-------------5-8-------------5-8-9-6--|
  |-000-000-----0-0-000-000-----0-0-000-000-----0-0-000-000----------|
    ... ...     . . ... ...     . . ... ...     . . ... ...

  |------------------------------------------------------------------|
  |------------------------------------------------------------------|
  |------------------------------------------------------------------|
  |------------------------------------------------------------------|
  |-000-000-5-8-0-0-000-000-5-8-0-0-000-000-5-8-0-0-000-000--5-8-9-6-|
  |-000-000-----0-0-000-000-----0-0-000-000-----0-0-000-000----------|
    ... ...     . . ... ...     . . ... ...     . . ... ...

  |----------|
  |----------|
  |----------|
  |----------|
  |-000-000--|
  |-000-000--|
    ... ...
Tap to rate this tab
 
# A B C D E F G H I J K L M N O P Q R S T U V W X Y Z