Song name
# A B C D E F G H I J K L M N O P Q R S T U V W X Y Z

Hatebreed - Last Breath tab

Tabbed by:Saul Salinas
Email:saul_453@hotmail.com

Tuning:Drop D
Key-
r:let the string ring a little


Intro

Listen for Timing/Strumming
0:05
e|----------------------|
B|----------------------|
G|----------------------|  (4x)
D|----------------------|
A|-0-4-3-0-5-4-0-4------|
D|-0-4-3-0-5-4-0-4------|

This time the delay between strokes is more
0:18
e|----------------------|
B|----------------------|
G|----------------------|
D|----------------------| (4x)
A|-0-4-3-0-5-4-0-4------|
D|-0-4-3-0-5-4-0-4------|



0:30
e|------------------------------|
B|------------------------------|
G|------------------------------|
D|--------------(3x)------------| (6x)
A|-2-0-0-3-0-0-0-----3-2-1-2----|
D|-2-0-0-3-0-0-0-----3-2-1-2----|


intro again
1:06
e|----------------------|
B|----------------------|
G|----------------------|  (4x)
D|----------------------|
A|-0-4-3-0-5-4-0-4------|
D|-0-4-3-0-5-4-0-4------|


This time the delay between strokes is more
0:18
e|----------------------|
B|----------------------|
G|----------------------|
D|----------------------|
A|-0-4-3-0-5-4-0-4------| (4x)
D|-0-4-3-0-5-4-0-4------|

Outro
0:18
e|----------------------|
B|----------------------|
G|----------------------|
D|----------------------| (4x)
A|-0-0r--2-1------------|
D|-0-0r--2-1------------|
Tap to rate this tab
 
# A B C D E F G H I J K L M N O P Q R S T U V W X Y Z