Song name
# A B C D E F G H I J K L M N O P Q R S T U V W X Y Z

Hatebreed - Under The Knife tab

artist:    HATEBREED
song:      UNDER THE KNIFE
cd:        UNDER THE KNIFE
tabbed by: OZRIC
tuning:    drop "C"

x:         palm mute

d|---------------------------| X1 (INTRO)
A|---------------------------|
F|---------------------------|
C|-0------3-6-5-3------------|
G|-0------3-6-5-3------------|
C|-0------3-6-5-3------------|

d|---------------------------|-------------------------| X4
A|---------------------------|-------------------------|
F|---------------------------|-------------------------|
C|-1--0-0--1--0-0--3-6-5-3-3-|-1--0-0--1--0-0--3-6-5-3-|
G|-1--0-0--1--0-0--3-6-5-3-3-|-1--0-0--1--0-0--3-6-5-3-|
C|-1--0-0--1--0-0--3-6-5-3-3-|-1--0-0--1--0-0--3-6-5-3-|

d|---------------------------| X1
A|---------------------------|
F|---------------------------|
C|-0-------------------------|
G|-0-------------------------|
C|-0--(LET RING)-------------|

d|--------------------------------------------------------|X4
A|---------------------------|----------------------------|LAST TIME PLAY THIS PART
F|------------(**---**)------| INSTEAD OF THE OTHER ONE---|
C|-6--0--1--0--3-0--1--------|--6-3-0-1-------------------|
G|-6--0--1--0--3-0--1--------|--6-3-0-1-------------------|
C|-6--0--1--0--3-0--1--------|--6-3-0-1-------------------|
               X X              X X X X

d|---------------------------|-------------------------| X4
A|---------------------------|-------------------------|
F|---------------------------|-------------------------|
C|-6-0-1-0--3-0--1-1---------|-6-0-1-0--3-0--3-3-------|
G|-6-0-1-0--3-0--1-1---------|-6-0-1-0--3-0--3-3-------|
C|-6-0-1-0--3-0--1-1---------|-6-0-1-0--3-0--3-3-------|
            X X                         X X

REPEAT SOME OF THE STEPS, YOU'LL GET IT.
Tap to rate this tab
 
# A B C D E F G H I J K L M N O P Q R S T U V W X Y Z