Song name
# A B C D E F G H I J K L M N O P Q R S T U V W X Y Z

Hatebreed - Condemned Until Rebirth tab

Help us improve GuitareTab! Take a short survey!
---------------------------------------------------------------------------------------| 
          condemned until rebirth - hatebreed
---------------------------------------------------------------------------------------|
Tabbed by:sean crow
Email: die_for_nothing_323@hotmail.com

Tuning: CGCFAd    (rate + comment please)

d|----------------|----------------------------------------------------|
A|----------------|----------------------------------------------------|
F|----------------|----------------------------------------------------|
C|-2-5-4--0-3-2---|-2-2--2-2--2--2-2--2-3/5----2-2--2-2--2--2-2--2-3p0-|
G|-2-5-4--0-3-2-X8|-2-2--2-2--2--2-2--2-3/5-X3-2-2--2-2--2--2-2--2-3p0-|
C|-2-5-4--0-3-2---|-2-2--2-2--2--2-2--2-3/5----2-2--2-2--2--2-2--2-3p0-|
                    . .  . .  .  . .  .        . .  . .  .  . .  .
d|------------------|
A|------------------|
F|------------------|
C|-2-5-4--0-3-2-----|
G|-2-5-4--0-3-2-X2--|
C|-2-5-4--0-3-2-----|

d|---------------------------------------------|
A|---------------------------------------------|
F|----------------------1st---2nd---3rd---4th--|
C|-2-2--2-2--2--2-2--2--3/5---5/6---3/5---6/5--|   REPEAT WHOLE LINE
G|-2-2--2-2--2--2-2--2--3/5---5/6---3/5---6/5--|
C|-2-2--2-2--2--2-2--2--3/5---5/6---3/5---6/5--|

d|----------------------|
A|----------------------|
F|----------------------|
C|-2-5-4--0-3-2---------|
G|-2-5-4--0-3-2-x10-----|
C|-2-5-4--0-3-2---------|
Related for Condemned Until Rebirth tab