Guitaretab - guitar tabs
Song name
# A B C D E F G H I J K L M N O P Q R S T U V W X Y Z

Hatebreed - Voice Of Contention tab

.= pm

------------------------------------------------------------------|
------------------------------------------------------------------|
------------------------------------------------------------------|
--0---1---0-----0-----3---1-----1-0---1---0-----0-----3------1----|  Play 6
--0---1---0-----0-----3---1-----1-0---1---0-----0-----3------1----|  times...
--0-0-1-0-0-0-0-0-0-0-3-0-1-0-0-1-0-0-1-0-0-0-0-0-0-0-3-0--0-1----|
    .   .   . .   . .   .   . .     .   .   . .   . .   .  .


------------------------------------------------------------------|
------------------------------------------------------------------|
------------------------------------------------------------------|
------------------5-----5-----3-----------------------------------|  Play 3
---0-1-3-0--------3-----3-----1-----------------------------------|  times..
---0-1-3-0--0-0-0---0-0---0-0-------------------------------------|
            . . .   . .   . .

------------------------------------------------------------------|
------------------------------------------------------------------|
------------------------------------------------------------------|
------------------5-5-5-5-5-5--3----------------------------------|
---0-1-3-0--------3-3-3-3-3-3--1----------------------------------|
---0-1-3-0--0-0-0-------------------------------------------------|
            . . .

------------------------------------------------------------------|
------------------------------------------------------------------|
------------------------------------------------------------------|
--0---1---0-----0-----3---1-----1-0---1---0-----0-----3------1----|   Play 4
--0---1---0-----0-----3---1-----1-0---1---0-----0-----3------1----|  times...
--0-0-1-0-0-0-0-0-0-0-3-0-1-0-0-1-0-0-1-0-0-0-0-0-0-0-3-0--0-1----|
    .   .   . .   . .   .   . .     .   .   . .   . .   .  .
[ Tab from: http://www.guitaretab.com/h/hatebreed/46974.html ]
---------------------------------------------------------------|
---------------------------------------------------------------|
---------------------------------------------------------------|
-------------------0--0-1---1-0---3-1--------------------------|    Play 4
-------------------0--0-1---1-0---3-1--------------------------|    times...
---0-0-0-0-0-0-0-0-0--0-1-0-1-0-0-3-1--------------------------|
   ...............

------------------------------------------------------------------|
------------------------------------------------------------------|
------------------------------------------------------------------|
------------------5-----5-----3-----------------------------------|  Play 3
---0-1-3-0--------3-----3-----1-----------------------------------|  times...
---0-1-3-0--0-0-0---0-0---0-0-------------------------------------|
            . . .   . .   . .

------------------------------------------------------------------|
------------------------------------------------------------------|
------------------------------------------------------------------|
------------------5-5-5-5-5-5--3----------------------------------|
---0-1-3-0--------3-3-3-3-3-3--1----------------------------------|
---0-1-3-0--0-0-0-------------------------------------------------|
            . . .

------------------------------------------------------------------|
------------------------------------------------------------------|
------------------------------------------------------------------|
--0---1---0-----0-----3---1-----1-0---1---0-----0-----3------1----|  Play 6
--0---1---0-----0-----3---1-----1-0---1---0-----0-----3------1----| times
--0-0-1-0-0-0-0-0-0-0-3-0-1-0-0-1-0-0-1-0-0-0-0-0-0-0-3-0--0-1----| but
    .   .   . .   . .   .   . .     .   .   . .   . .   .  .       slower


---------|
---------|
---------|
---0-----|
---0-----|
---0-----|
Related for Voice Of Contention tab
Advertisement will be closed in 10 seconds