Song name
# A B C D E F G H I J K L M N O P Q R S T U V W X Y Z

Hatebreed - Straight To Your Face tab

Help us improve GuitareTab! Take a short survey!
This is pretty accurate so..enjoy! =)

C tuning

Palm mute= *

Chorus:
D|----------------------------------|
A|----------------------------------|
F|----------------------------------|
C|-7-7-7-6---7-7-7-6---7-7-7-6--3-0-|
G|-7-7-7-6---7-7-7-6---7-7-7-6--3-0-|
C|-7-7-7-6---7-7-7-6---7-7-7-6--3-0-|

Verse 1
D|----------------------------------|-------------------------------------------------|
A|----------------------------------|-------------------------------------------------|
F|----------------------------------|-------------------------------------------------|
C|-7-7-7-6-0-6-3--7-7-7-6-0-6-3-3333333-|--7-7-7-6-0-6-3--7-7-7-6-3-0-0000000---------|
G|-7-7-7-6-0-6-3--7-7-7-6-0-6-3-3333333-|--7-7-7-6-0-6-3--7-7-7-6-3-0-0000000---------|
C|-7-7-7-6-0-6-3--7-7-7-6-0-6-3-3333333-|--7-7-7-6-0-6-3--7-7-7-6-3-0-0000000---------|

D|----------------------------------|-------------------------------------------------|
A|----------------------------------|-------------------------------------------------|
F|----------------------------------|-------------------------------------------------|
C|-7-7-7-6-0-6-3--7-7-7-6-0-6-3-3333333-|--7-7-7-6-0-6-3--7-7-7-6-3-0-0000000---------|
G|-7-7-7-6-0-6-3--7-7-7-6-0-6-3-3333333-|--7-7-7-6-0-6-3--7-7-7-6-3-0-0000000---------|
C|-7-7-7-6-0-6-3--7-7-7-6-0-6-3-3333333-|--7-7-7-6-0-6-3--7-7-7-6-3-0-0000000---------|

Chorus:
D|----------------------------------|x1
A|----------------------------------|
F|----------------------------------|
C|-7-7-7-6---7-7-7-6---7-7-7-6--3-0-|
G|-7-7-7-6---7-7-7-6---7-7-7-6--3-0-|
C|-7-7-7-6---7-7-7-6---7-7-7-6--3-0-|

"Straching"

Verse 2
D|----------------------------------|-------------------------------------------------|
A|----------------------------------|-------------------------------------------------|
F|----------------------------------|-------------------------------------------------|
C|-7-7-7-6-0-6-3--7-7-7-6-0-6-3-3333333-|--7-7-7-6-0-6-3--7-7-7-6-3-0-0000000---------|
G|-7-7-7-6-0-6-3--7-7-7-6-0-6-3-3333333-|--7-7-7-6-0-6-3--7-7-7-6-3-0-0000000---------|
C|-7-7-7-6-0-6-3--7-7-7-6-0-6-3-3333333-|--7-7-7-6-0-6-3--7-7-7-6-3-0-0000000---------|

D|----------------------------------|-------------------------------------------------|
A|----------------------------------|-------------------------------------------------|
F|----------------------------------|-------------------------------------------------|
C|-7-7-7-6-0-6-3--7-7-7-6-0-6-3-3333333-|--7-7-7-6-0-6-3--7-7-7-6-3-0-0000000---------|
G|-7-7-7-6-0-6-3--7-7-7-6-0-6-3-3333333-|--7-7-7-6-0-6-3--7-7-7-6-3-0-0000000---------|
C|-7-7-7-6-0-6-3--7-7-7-6-0-6-3-3333333-|--7-7-7-6-0-6-3--7-7-7-6-3-0-0000000---------|

Chorus:
D|----------------------------------|x2
A|----------------------------------|
F|----------------------------------|
C|-7-7-7-6---7-7-7-6---7-7-7-6--3-0-|
G|-7-7-7-6---7-7-7-6---7-7-7-6--3-0-|
C|-7-7-7-6---7-7-7-6---7-7-7-6--3-0-|

Bridge
D|--------------------------------------------------------------------------|
A|--------------------------------------------------------------------------|
F|--------------------------------------------------------------------------|
C|-7-7-7--6-6-6--0-0--6-6-6--3-3-3-3-3---7-7-7--6-6-6--0-0--6-6-6-6-6-6-6-6-|
G|-7-7-7--6-6-6--0-0--6-6-6--3-3-3-3-3---7-7-7--6-6-6--0-0--6-6-6-6-6-6-6-6-|
C|-7-7-7--6-6-6--0-0--6-6-6--3-3-3-3-3---7-7-7--6-6-6--0-0--6-6-6-6-6-6-6-6-|
   * * *    * * *  * *   * * *  * * * * *    * * *  * * *   * *    * * * * * * * *
D|------------------------------------------------------------|
A|------------------------------------------------------------|
F|------------------------------------------------------------|
C|-7-7-7--6-6-6--0-0--6-6-6--3-3-3-3-3---7-7-7--6-6-6--3-3--0-|
G|-7-7-7--6-6-6--0-0--6-6-6--3-3-3-3-3---7-7-7--6-6-6--3-3--0-|
C|-7-7-7--6-6-6--0-0--6-6-6--3-3-3-3-3---7-7-7--6-6-6--3-3--0-|
       * *    * *      *     * *     * * * *      * *     * *     *

D|--------------------------------------------------------------------------|
A|--------------------------------------------------------------------------|
F|--------------------------------------------------------------------------|
C|-7-7-7--6-6-6--0-0--6-6-6--3-3-3-3-3---7-7-7--6-6-6--0-0--6-6-6-6-6-6-6-6-|
G|-7-7-7--6-6-6--0-0--6-6-6--3-3-3-3-3---7-7-7--6-6-6--0-0--6-6-6-6-6-6-6-6-|
C|-7-7-7--6-6-6--0-0--6-6-6--3-3-3-3-3---7-7-7--6-6-6--0-0--6-6-6-6-6-6-6-6-|

D|------------------------------------------------------------|
A|------------------------------------------------------------|
F|------------------------------------------------------------|
C|-7-7-7--6-6-6--0-0--6-6-6--3-3-3-3-3---7-7-7--6-6-6--3-3--0-|
G|-7-7-7--6-6-6--0-0--6-6-6--3-3-3-3-3---7-7-7--6-6-6--3-3--0-|
C|-7-7-7--6-6-6--0-0--6-6-6--3-3-3-3-3---7-7-7--6-6-6--3-3--0-|

D|--------------------------------------------------------------------------|
A|--------------------------------------------------------------------------|
F|--------------------------------------------------------------------------|
C|-7-7-7--6-6-6--0-0--6-6-6--3-3-3-3-3---7-7-7--6-6-6--0-0--6-6-6-6-6-6-6-6-|
G|-7-7-7--6-6-6--0-0--6-6-6--3-3-3-3-3---7-7-7--6-6-6--0-0--6-6-6-6-6-6-6-6-|
C|-7-7-7--6-6-6--0-0--6-6-6--3-3-3-3-3---7-7-7--6-6-6--0-0--6-6-6-6-6-6-6-6-|

D|------------------------------------------------------------|
A|------------------------------------------------------------|
F|------------------------------------------------------------|
C|-7-7-7--6-6-6--0-0--6-6-6--3-3-3-3-3---7-7-7--6-6-6--3-3--0-|
G|-7-7-7--6-6-6--0-0--6-6-6--3-3-3-3-3---7-7-7--6-6-6--3-3--0-|
C|-7-7-7--6-6-6--0-0--6-6-6--3-3-3-3-3---7-7-7--6-6-6--3-3--0-|

D|--------------------------------------------------------------------------|
A|--------------------------------------------------------------------------|
F|--------------------------------------------------------------------------|
C|-7-7-7--6-6-6--0-0--6-6-6--3-3-3-3-3---7-7-7--6-6-6--0-0--6-6-6-6-6-6-6-6-|
G|-7-7-7--6-6-6--0-0--6-6-6--3-3-3-3-3---7-7-7--6-6-6--0-0--6-6-6-6-6-6-6-6-|
C|-7-7-7--6-6-6--0-0--6-6-6--3-3-3-3-3---7-7-7--6-6-6--0-0--6-6-6-6-6-6-6-6-|

D|------------------------------------------------------------|
A|------------------------------------------------------------|
F|------------------------------------------------------------|
C|-7-7-7--6-6-6--0-0--6-6-6--3-3-3-3-3---7-7-7--6-6-6--3-3--0-|
G|-7-7-7--6-6-6--0-0--6-6-6--3-3-3-3-3---7-7-7--6-6-6--3-3--0-|
C|-7-7-7--6-6-6--0-0--6-6-6--3-3-3-3-3---7-7-7--6-6-6--3-3--0-|
                                                       * *      * *    *

Final Chorus:
D|----------------------------------|
A|----------------------------------|
F|----------------------------------|
C|-7-7-7-6---7-7-7-6---7-7-7-6--3-0-|
G|-7-7-7-6---7-7-7-6---7-7-7-6--3-0-|
C|-7-7-7-6---7-7-7-6---7-7-7-6--3-0-|

This is my first tab, so please rate and leave a comment please!

Thank You!
Related for Straight To Your Face tab