Song name
# A B C D E F G H I J K L M N O P Q R S T U V W X Y Z

Hatebreed - Smash Your Enemies tab

============================================================================

Tabbed by : SaltyOreo17@yahoo.com
Band : Hatebreed
Song : Smash Your Enemies
Album : Perseverance

============================================================================
Legend

 /   slide up
 \   slide down
 h   hammer-on
 p   pull-off
 ~   vibrato
 *   harmonic
 x   Mute note
 ^   Whammy bar
|--| Palm Mute
============================================================================

Tuning:
(Guitar 1): eBGDAD

============================================================================
Riff 1
============================================================================

                                                   x6 
||-------------------------------------------------||
||-------------------------------------------------||
||-------------------------------------------------||
||----------------------------------12-10-9--------||
||--0-0-0-0h1-0-0-0-0-3-0-0-0-0h1-0-9--8--7-9-8-7--||
||--0-0-0-0h1-0-0-0-0-3-0-0-0-0h1-0---------9-8-7--||
    |---|     |---|     |---|     |

On the sixth time hold out the ||-7-||
                               ||-7-||


============================================================================
Riff 2
============================================================================

                            x11
||--------------------------||
||--------------------------||
||--------------------------||
||--1----------5-5-5-3-3-3--||
||--1----------3-3-3-1-1-1--||
||--1-00000000--------------||
      |------|
     
                       x4
||---------------------||
||---------------------||
||-----5-5-5----3-3-3--||
||-1---5-5-5----3-3-3--||
||-1---3-3-3----1-1-1--||
||-1-------------------||


||-----||
||-----||
||-----||
||--1--||
||--1--||
||--1--||


============================================================================
Riff 3
============================================================================

                 x16
||---------------||
||---------------||
||---------------||
||---------------||
||--1-2-1-3-4-3--||
||--1-2-1-3-4-3--||

============================================================================

THATS ALL PLEASE RATE.
Tap to rate this tab
# A B C D E F G H I J K L M N O P Q R S T U V W X Y Z