Song name
# A B C D E F G H I J K L M N O P Q R S T U V W X Y Z

Hatebreed - Prepare For War tab

hatebreed-prepare for war

HATEBREED RULES!!!

          Intro                            "Drifting by heavens..."
1||-----||---------------|---------------||-----------------|-----------------||
2||-----||---------------|---------------||-----------------|-----------------||
3||-----||---------------|---------------||-----------------|-----------------||
4||-----||---------------|---------------||-----------------|-----------------||
5||-3---||-2-------------|-----------3---||-2-----4/5-----5/|/6-----7---2-3---||
6||-1---||-0-------------|-----------1---||-0-0-0-2/3-0-0-3/|/4-0-0-5-0-0-1---||

   "Now..."             "There is no fear..."
1||---------|---------||-----------------|-----------------||
2||---------|---------||-----------------|-----------------||
3||---------|---------||-----------------|-----------------||
4||---------|---------||-----------------|-----------------||
5||-2-------|-2-------||-2---4---5---4---|-2---4---5---7---||
6||-0-------|-0-------||-0---2---3---2---|-0---2---3---5---||
Tap to rate this tab
 
# A B C D E F G H I J K L M N O P Q R S T U V W X Y Z