Guitaretab - guitar tabs
Song name
# A B C D E F G H I J K L M N O P Q R S T U V W X Y Z

Hatebreed - Betrayed By Life tab

HATEBREED RULES!

  "In a cold, unforgiving world..."
1||---------------|---------------||--------------|---------------|------||
2||---------------|---------------||--------------|---------------|------||
3||---------------|---------------||--------------|---------------|------||
4||---------------|---------------||--------------|---------------|------||
5||-3-------------|-6------2------||-3------------|-6------3------|-2----||
6||-1-------------|-4------0------||-1------------|-4------1------|-0----||
[ Tab from: http://www.guitaretab.com/h/hatebreed/47729.html ]
                                        "No one, is exempt..."
1||-----------------|-----------------||-----------------|-----------------||
2||-----------------|-----------------||-----------------|-----------------||
3||-----------------|-----------------||-----------------|-----------------||
4||-3---------------|-----------------||-----------------|---------3-------||
5||-1---2---5-4-2---|-5-4-2---5-4-2---||-3-2-------3---2-|-3-2---2-1-------||
6||-----0---3-2-0---|-3-2-0---3-2-0---||-1-0-------1---0-|-1-0---0---------||
Related for Betrayed By Life tab
Advertisement will be closed in 10 seconds