Song name
# A B C D E F G H I J K L M N O P Q R S T U V W X Y Z

Hatebreed - Mark My Words tab

  "I was so blind..."
1||-----------------|-----------------|-----------------|-----------------||
2||-----------------|-----------------|-----------------|-----------------||
3||-----------------|-----------------|-----------------|-----------------||
4||-9---------------|-7------10-------|-9---------------|-----------------||
5||-7---------------|-5-------8-------|-7---------------|-5-------7-------||
6||-----------------|-----------------|-----------------|-3-------5-------||

   Chorus "Consider my suffering..."                     *Slower ending last time
1||-----------------|----------------|------------------|-----------------||
2||-----------------|----------------|------------------|-----------------||
3||-----------------|----------------|------------------|-----------------||
4||-----------------|----------------|------------------|-----------------||
5||-2---------------|-5--------------|------------------|-8--7--5---------||
6||-0---------------|-3--------------|-0000000000000000-|-6--5--3---------||

   Slower Ending                Bass and Guitar lick "Mark My Words"
1||------------------|--------||-----------------|-----------------||
2||------------------|--------||-----------------|-----------------||
3||------------------|--------||-----------------|-----------------||
4||------------------|--------||-----------------|-----------------||
5||-8--7-----5---5---|-2------||-3---2---5---2---|-8---7---5---7---||
6||-6--5--0--3---3---|-0------||-1---0---3---0---|-6---5---3---5---||
Tap to rate this tab
 
# A B C D E F G H I J K L M N O P Q R S T U V W X Y Z