Song name
# A B C D E F G H I J K L M N O P Q R S T U V W X Y Z

Hatebreed - Facing What Consumes You tab

album:the rise of brutality
song:facing what consumes you
tuning:drop c (CGCFAD)

* = PALM MUTE
~ = LET NOTE RING
/ = SLIDE


    THIS IS ANOTHER GREAT SONG BY HATEBREED AND ITS 100% CORRECT.


   INTRO/VERSE
D-----------------------------------------------------------------|
A-----------------------------------------------------------------|
F-----------------------------------------------------------------|
C-----------------------------------------3-----------------4-----|
G----------3-5----------3-6----------3-5----------------3-5-------|
C-00000000-----00000000-----00000000-----------00000000-----------|
  ********     ********     ********           ********

   CHORUS
D-----------------------------------------------------|
A-----------------------------------------------------|
F-----------------------------------------------------|
C----------5/7----------5/8---------------------------|
G----------3/5----------3/6----------0-0~-1-1~-3-3~---|
C-00000000-----00000000-----00000000-0-0~-1-1~-3-3~---|
  ********     ********     ******** *    *    *

   RIFF 1 X6
D-----------------------------|
A-----------------------------|
F-----------------------------|
C-----------------------------|
G-0-3-0-6-5-3--0-3-0-4-3-1----|
C-0-3-0-6-5-3--0-3-0-4-3-1----|

THEN PLAY

VERSE
CHORUS X4


  PRE OUTRO

D--------------|
A--------------|
F--------------|
C--------------|
G-0~~~~~~~~~~~~ LET CHORD RING OUT WITH FEED BACK
C-0~~~~~~~~~~~~


   OUTRO    "YOUR DOUBT IT FUELS ME!...."

D--------------------------------------|
A--------------------------------------|
F--------------------------------------|
C--------8-------7/5--------7/4--------|
G--------6-------5/3--------5/2--------|
C-000000----0000-----000000------------|
  ******    ****     ******

  LAST TIME PLAY THIS
D-------------------------------------|
A-------------------------------------|
F-------------------------------------|
C----------8-----7/5----------7/4-----|
G----------6-----5/3----------5/2-----|
C-000-000----000------000-000---------|
  *** ***    ***      *** ***


   THATS ALL ANY COMMENTS OR WANT ME TO TAB SOMETHING EMAIL ME AT

   GUITAR_HERO_84@HOTMAIL.COM          TABBED BY:TAB_MAN84
Tap to rate this tab
# A B C D E F G H I J K L M N O P Q R S T U V W X Y Z