Song name
# A B C D E F G H I J K L M N O P Q R S T U V W X Y Z

Hatebreed - Another Day Another Vendetta tab

Song : Another Day, Another Vendetta
Band : Hatebreed
Album : The Rise Of Brutality
Number Of Guitars : 2
Tabber : Ahdy Khairat (AMK)
E-mail : am_khairat@hotmail.com
2004 Universal Motown Records Group All Rights Reserved

                           Rythm 1

                  Guitar 1 Repeat This Four Times
                  Guitar 2 Repeat This 2 Times only
D--------------------------------------------------------------------|
A--------------------------------------------------------------------|
F--------------------------------------------------------------------|
C------------------4----------------------------4-----6--6-----------|
G---0------0-------1---------------------0------1-----4--4-----------|
C---0--0-0-0--0-0-----0-0-0-0-0-0-0-0-0--0--0-0---0-0----------------|


                          Rythm 2
                   Guitar 2 play this twice
D---------------------------------------------------------------------|
A---------------------------------------------------------------------|
F---------------------------------------------------------------------|
C--7--7--7--7--7--7--7--7--7--7--7--8--7--8--7--8--7--3--3--3--3--3---|
G--5--5--5--5--5--5--5--5--5--5--5--6--5--6--5--6--5--1--1--0--0--0---|
C---------------------------------------------------------------------|


               Now repeat rythm 1 four times then go thru rythm 3


                         Rythm 3 (Play it 4 times)

                    "All I See Is Killing...Another Day,
                    Another Vendetta...There Is So Much
                      Suffering...Another Day. Another
                               Vendetta..."

D---------------------------------------------------------------------|
A---------------------------------------------------------------------|
F---------------------------------------------------------------------|
C------------2--------------------------------------------------------|
G---3--2-----0--------6-----------------------------------------------|
C---3--2--0-----0--0--6--0--0--0--0--0--0--0--------------------------|


                         Repeat rytm 1 and 2


         Rythm 4 (This comes exactly after the end of Rythm 3)

                           From here play all that 8 times
D------------------------|---------------------------------------------|
A------------------------|---------------------------------------------|
F------------------------|---------------------------------------------|
C---Play this only once--|---------------------------------------------|
G---7--7--7--7--8--8--8--|---0-----3-----------0--7--6-----------------|
C---7--7--7--7--8--8--8--|---0--0--3--0--0--0--0--7--6-----------------|


D---------------------------------------------------------------------|
A---------------------------------------------------------------------|
F---------------------------------------------------------------------|
C---------------------------------------------------------------------|
G------------0-----3-----------0--7--6--3-----------------------------|
C---0--0--0--0--0--3--0--0--0--0--7--6--3-----------------------------|


         Now repeat Rythm 1 and 2 and 3 once more then :

D---------------------------------------------------------------------|
A---------------------------------------------------------------------|
F---------------------------------------------------------------------|
C---------------------------------------------------------------------|
G---7--7--7--7--8--8--8--0--------------------------------------------|
C---7--7--7--7--8--8--8--0--------------------------------------------|

Enjoy ;)
Tap to rate this tab
# A B C D E F G H I J K L M N O P Q R S T U V W X Y Z