Song name
# A B C D E F G H I J K L M N O P Q R S T U V W X Y Z

Hatebreed - Below The Bottom tab

Band- Hatebreed
Song- Below The Bottom

Tune to Dropped C

Intro 
|----------------------------------------------------------------------------------------------------|
|----------------------------------------------------------------------------------------------------|
|----------------------------------------------------------------------------------------------------|
|----------------------------------------------------------------------------------------------------|
|-0-0-0--0-0--0-0--0-0----0-0-0--0-0--0-3--0-0----0-0-0--0-0--0-0--0-0----0-0-0--0-0--0-3--1-1--1-4--|
|-0-0-0--0-0--0-0--0-0----0-0-0--0-0--0-3--0-0----0-0-0--0-0--0-0--0-0----0-0-0--0-0--0-3--1-1--1-4--|
  . .    .    .    .      . .    .    .    .      . .    .    .    .      . .    .    .    .    .

Verse "Half dead..."
|----------------------------------------------------|
|----------------------------------------------------|
|----------------------------------------------------|
|----------------------------------------------------|
|-4-0-0--0-0--0-0--0-0----0-0-0--0-0--0-3--1-1--1-4--|
|-4-0-0--0-0--0-0--0-0----0-0-0--0-0--0-3--1-1--1-4--|
    .    .    .    .      . .    .    .    .    .

Pre-chorus "All virtue decayed..."
|----------------------------|----------------------------|
|----------------------------|----------------------------|
|----------------------------|----------------------------|
|----------------------------|----------------------------|
|-4-0-0--0-0--0-3--1-1--1-4--|-4-0-0--0-0--0-3--1-1-1--1--|
|-4-0-0--0-0--0-3--1-1--1-4--|-4-0-0--0-0--0-3--1-1-1--1--|
    .    .    .    .    .

High riff "Are you not alone now?..."
|----------------------------|----------------------------|
|----------------------------|----------------------------|
|----------------------------|----------------------------|
|-4-0-0--0-0--0-3--1-1--1-4--|-4-0-0--0-0--0-3--1-1-1--1--|
|----------------------------|----------------------------|
|----------------------------|----------------------------|

Chorus "Take a look..."
|------------------------------------------|
|------------------------------------------|
|------------------------------------------|
|----------------------------6----6----6---|
|-0-0---0-0-0---0-0---0-0-0--4--0-4--0-4---|
|-0-0---0-0-0---0-0---0-0-0--4--0-4--0-4---|
Tap to rate this tab
 
# A B C D E F G H I J K L M N O P Q R S T U V W X Y Z