Song name
# A B C D E F G H I J K L M N O P Q R S T U V W X Y Z

Hatebreed - Kill An Addict tab

Band- Hatebreed
Song- Kill An Addict

------------------------------------------------------------------------------|
------------------------------------------------------------------------------|
------------------------------------------------------------------------------|
------------------------------------------------------------------------------|
------------------------------------------------------------------------------|
-0000000000000000000000000000000000000000000000000000000000000000000000000000-
 ^ 1st guitar                                                            (x2)

-----------------------------------------|------------------------------------|
-----------------------------------------|------------------------------------|
-----------------------------------------|------------------------------------|
-----------------------------------------|------------------------------------|
-1------------------------0-1-3-0-1-3-1--|-0-1-3-0-1-3-0----------------------|
-1------------------------0-1-3-0-1-3-1--|-0-1-3-0-1-3-0----------------------|
 ^ 2nd guitar                                          ^ let ring        (x2)

------------------------------------------------------------------------------|
------------------------------------------------------------------------------|
------------------------------------------------------------------------------|
------------------------------------------------------------------------------|
-----------------------------------------xxxxxxxxxxxxxxxxxx-------------------|
-----------------------------------------xxxxxxxxxxxxxxxxxx-------------------|
 (i think its guitar dubbed over)        scrape down the neck with the pick

------------------------------------|-----------------------------------------|
------------------------------------|-----------------------------------------|
------------------------------------|-----------------------------------------|
------------------------------------|---0vvvvv--------------------------------|
------------------0-1-3-0-1-3-------|-----------------------------------------|
-0-0-0-0-0-0-0-0--0-1-3-0-1-3-------|-----------------------------------------|
                              (x4)   (vibrate open string behind the neck)

-----------------------------------|------------------------------------------|
-----------------------------------|------------------------------------------|
-----------------------------------|------------------------------------------|
-----------------------------------|------------------------------------------|
------------------2p1-0-3p2-0-5p4--|-------------------2p1-0-3p2-0-5p4--------|
-0-0-0-0-0-0-0-0--2p1-0-3p2-0-5p4--|--0-0-0-0-0-0-0-0--2p1-0-3p2-0-5p4--------|
 ^ 1st guitar                         ^ both guitars                   (x9)

------------------------------------------------------------------------------|
------------------------------------------------------------------------------|
------------------------------------------------------------------------------|
------------------------------------------------------------------------------|
------------------------------------------------------------------------------|
-000000000000000000-----------------------------------------------------------|
 ^ 1st guitar

------------------------------------------------------------------------------|
------------------------------------------------------------------------------|
------------------------------------------------------------------------------|
------------------------------------------------------------------------------|
-1----0-1-3-0-1-3-1-----------------------------------------------------------|
-1----0-1-3-0-1-3-1-----------------------------------------------------------|
 ^ 2nd guitar
Tap to rate this tab
# A B C D E F G H I J K L M N O P Q R S T U V W X Y Z