Song name
# A B C D E F G H I J K L M N O P Q R S T U V W X Y Z

Hatebreed - Last Words tab

Band- Hatebreed
Song- Last Words

"All the prayers in the world..."    "Taken from this earth..."
1||-----------------|-----------------||-----------------|-----------------|
2||-----------------|-----------------||-----------------|-----------------|
3||-----------------|-----------------||-----------------|-----------------|
4||-----------------|-----------------||-----------------|-----------------|
5||-2-----6-5---2---|-6---5---2-5-----||-3-2-2-5-2-2-2-2-|-3-2-2-5-2-2-2-2-|
6||-0-----4-3---0---|-4---3---0-3-----||-1-0-0-3-0-0-0-0-|-1-0-0-3-0-0-0-0-|

                                                            Ending
1||-----------------|-------------------------------------||-----------------|----||
2||-----------------|-------------------------------------||-----------------|----||
3||-----------------|-------------------------------------||-----------------|----||
4||-----------------|-------------------------------------||-----------------|----||
5||-3-2-2-5-2-2-2-2-|-10-10-10-10-8-8-8-8-5-5-5-5-8-8-8-8-||-6---5---2-5---5-|-2--||
6||-1-0-0-3-0-0-0-0-|-------------------------------------||-4---3---0-3---3-|-0--||
Tap to rate this tab
# A B C D E F G H I J K L M N O P Q R S T U V W X Y Z