Song name
# A B C D E F G H I J K L M N O P Q R S T U V W X Y Z

Hatebreed - Youre Never Alone tab

Help us improve GuitareTab! Take a short survey!
Band- Hatebreed
Song- Youre Never Alone

Intro/Verse
|-------------------------------|--------------------------|
|-------------------------------|--------------------------|
|-------------------------------|--------------------------|
|-------------------------------|--------------------------|
|-6--000-0-0--0-0-3-5-3-6--3-5--|-6--000-0-0--0-0-3--1--4--|
|-6--000-0-0--0-0-3-5-3-6--3-5--|-6--000-0-0--0-0-3--1--4--|
     ... .    . .                    ... .    . . 

Pre-Chorus "It's our struggles..."
|--------------------------------------------------|
|--------------------------------------------------|
|--------------------------------------------------|
|--------------------------------------------------|
|-3-6-3---1--0-0-0-0---0-0-4-7-4---1--0-0-1--0-0-0-|
|-3-6-3---1--0-0-0-0---0-0-4-7-4---1--0-0-1--0-0-0-|
             . . .     . .            . .    . . .

Chorus "All your life..."
|-----------------|-------------------------|
|-----------------|-------------------------|
|-----------------|-------------------------|
|-----------------|-------------------------|
|-1-0--0-00000000-|-3---3--3--5-5---6--5--3-|
|-1-0--0-00000000-|-3---3--3--5-5---6--5--3-|
  . .  . ........ 

Outro "Forever..."
|-----------------|--------------------|--------------|
|-----------------|--------------------|--------------|
|-----------------|--------------------|--------------|
|-----------------|--------------------|--------------|
|-1-0--0-00000000-|-1-0--0-5h8p5-4h7p4-|-1-0--0-5--4--|
|-1-0--0-00000000-|-1-0--0-------------|-1-0--0-7--6--|
  . .  . ........   . .  .               . .  .
Related for Youre Never Alone tab