Song name
# A B C D E F G H I J K L M N O P Q R S T U V W X Y Z

Hatebreed - Bound To Violance tab

Help us improve GuitareTab! Take a short survey!
intro

D|--------------------------------------------------|
A|--------------------------------------------------|
F|--------------------------------------------------|
C|--------------------------------------------------|    ,
G|-0---1-1-4-1-0---1-1-4-1-0---1-1-4-3-1---1-1-4-1--|\/ /|
C|-0---1-1-4-1-0---1-1-4-1-0---1-1-4-3-1---1-1-4-1--|/\ _|_

CHORUS1

D|-------------------------------------|
A|-------------------------------------|
F|-------------------------------------|
C|-------------------------------------|
G|-000-000-0001-4-1-0000000000001-4-1--|\/ |_|
C|-000-000-0001-4-1-0000000000001-4-1--|/\   |
   *** *** ***      ************  
D|--------------------------------------------------|
A|--------------------------------------------------|
F|--------------------------------------------------|
C|--------------------------------------------------|    ,
G|-0---1-1-4-1-0---1-1-4-1-0---1-1-4-3-1---1-1-4-1--|\/ /|
C|-0---1-1-4-1-0---1-1-4-1-0---1-1-4-3-1---1-1-4-1--|/\ _|_

D|-----------------------------------------------------------------|    _
A|-----------------------------------------------------------------|\/  _|
F|-----------------------------------------------------------------|/\ |_
C|-----------------------------------------------------------------|_____
G|-000-000-0000-000000-000-0000-000000-000-0000-000000-000-0000-0001-4-1-|
C|-000-000-0000-000000-000-0000-000000-000-0000-000000-000-0000-0001-4-1-|
   *** *** **** ****** *** **** ****** *** **** ****** *** **** ***

 BRIGDE

D|--------------------------------------------------------------------------
A|--------------------------------------------------------------------------
F|--------------------------------------------------------------------------
C|--------------------------------------------------------------------------
G|---0----0---1-1-4-1---0----0---1-1-4-1---0----0---1-1-4-3-1---0----0---1-1
C|-0-0-00-0-0-1-1-4-1-0-0-00-0-0-1-1-4-1-0-0-00-0-0-1-1-4-3-1-0-0-00-0-0-1-1
   *   **   *         *   **   *         *   **   *           *   **   *
D------|
A------|
F------|
C------|   _
G-4-1--|\/ _|
C-4-1--|/\|_

D|------------------------------------------------|
A|------------------------------------------------|
F|------------------------------------------------|
C|------------------------------------------------|    ,
G|-0-1-1-4-1-0---1-1-4-1-0---1-1-4-3-1---1-1-4-1--|\/ /|
C|-0-1-1-4-1-0---1-1-4-1-0---1-1-4-3-1---1-1-4-1--|/\ _|_

END

D|-------------------------------------|
A|-------------------------------------|
F|-------------------------------------|
C|-------------------------------------|    _
G|-000-000-0001-4-1-000000000001-4-1--|\/ |_
C|-000-000-0001-4-1-000000000001-4-1--|/\ |_|
   *** *** ***      ***********








Related for Bound To Violance tab