Song name
# A B C D E F G H I J K L M N O P Q R S T U V W X Y Z

Hatebreed - To The Threshold tab

Help us improve GuitareTab! Take a short survey!
D
A
F
C
G
C


tuning^^^^
Intro
D| - - - - - - - - -
A| - - - - - - - - -
F| - - - - - - - - -
C| - - - - - - - - -
G| 1-1-1-0-0--4-4-4-3-3-0---0 
C| 1-1-1-0-0--4-4-4-3-3-0---0 

(with this bit u can also play the 1st chord just once, sounds juss as gd)
Riff 1 Start

D| - - - - - - - - -
A| - - - - - - - - -
F| - - - - - - - - -
C| - - - - - - - - -
G| 3-3-1-0-0-0-0-0-0 
C| 3-3-1-0-0-0-0-0-0 

D| - - - - - - - - -
A| - - - - - - - - -
F| - - - - - - - - -
C| - - - - - - - - -
G| 3-3-1-0-0-0-0-0-0 
C| 3-3-1-0-0-0-0-0-0 

D| - - - - - - - - -
A| - - - - - - - - -
F| - - - - - - - - -
C| - - - - - - - - -
G| 3-3-1-0-0-0-0-0-0 
C| 3-3-1-0-0-0-0-0-0 

D| - - - - - - -
A| - - - - - - -
F| - - - - - - -
C| - - - - - 7-7
G| 3-3-1-0-0-5-5 
C| 3-3-1-0-0---- 

D| - - - - - - - - -
A| - - - - - - - - -
F| - - - - - - - - -
C| - - - - - - - - -
G| 3-3-1-0-0-0-0-0-0 
C| 3-3-1-0-0-0-0-0-0 

D| - - - - - - - - -
A| - - - - - - - - -
F| - - - - - - - - -
C| - - - - - - - - -
G| 3-3-1-0-0-0-0-0-0 
C| 3-3-1-0-0-0-0-0-0 

D| - - - - - - - - -
A| - - - - - - - - -
F| - - - - - - - - -
C| - - - - - - - - -
G| 3-3-1-0-0-0-0-0-0 
C| 3-3-1-0-0-0-0-0-0 

D| - - - - - - - - - -
A| - - - - - - - - - -
F| - - - - - - - - - -
C| - - - - 7-11-10-9-7 
G| 3-3-1-0-5-9- 8- 7-5 
C| 3-3-1-0- - -  - --- 
Riff 1 Fisish

Riff 2
D| - - - - - - - - -
A| - - - - - - - - -
F| - - - - - - - - -
C| - - - - - - - - -
G| 3-3-2-1-0- - - ---- 
C| 3-3-2-1-0-3x3x3x3x3 

Riff 3
D| - - - - - - - - -
A| - - - - - - - - -
F| - - - - - - - - -(on 4th times, rub plec up bottom 2 strings
C| - - - - - - - - -
G| 3-3-3-2-1-0------|
C| 3-3-3-2-1-0------|

Riff 4
D| - - - - - - - - -
A| - - - - - - - - -
F| - - - - - - - - -
C| - - - - - - - - -
G| 0-3-5-6-0-3-5-0-3-4-3 
C| 0-3-5-6-0-3-5-0-3-4-3 

Riff 5
D| - - - - - - - - - - - - - - - - - - -
A| - - - - - - - - - - - - - - - - - - -
F| - - - - - - - - - - - - - - - - - - -
C| - - - - - - - - - - - - - - - - - - -
G| 0-3-5-6-0-3-1-1-1-0-0-4-4-4-3-3-0---0 
C| 0-3-5-6-0-3-1-1-1-0-0-4-4-4-3-3-0---0 

Riff 6
D|- - - - - - - - - -
A|- - - - - - - - - -
F|- - - - - - - - - -
C|- - - - - - - - - -
G|
C|0-3-5-6---0-3-5-0---

Riff 7

D| - - - - - - - - -
A| - - - - - - - - -
F| - - - - - - - - -
C| - - - - - - - - -
G| 3-3-1-0-0-0-0-0-0 
C| 3-3-1-0-0-0-0-0-0 

D| - - - - - - - - -
A| - - - - - - - - -
F| - - - - - - - - -
C| - - - - - - - - -
G| 3-3-1-0-0-0-0-0-0 
C| 3-3-1-0-0-0-0-0-0 

D| - - - - - - - - -
A| - - - - - - - - -
F| - - - - - - - - -
C| - - - - - - - - -
G| 3-3-1-0-0-0-0-0-0 
C| 3-3-1-0-0-0-0-0-0 

D| - - - - - - -
A| - - - - - - -
F| - - - - - - -
C| - - - - - 7-7
G| 3-3-1-0-0-5-5 
C| 3-3-1-0-0---- 

Outro

D|-
A|-
F|-
C|-
G|0
C|0

Intro
Riff 1 x2
Riff 2 x4
Riff 3 x4
Riff 4 x3
Riff 5 x1
Riff 1 x1
Riff 2 x6
Riff 6 x2
Riff 2 x4
Riff 1 x4
Outro

any questions?? email is

mrjoe_1@hotmail.com

thankies
Related for To The Threshold tab