Song name
# A B C D E F G H I J K L M N O P Q R S T U V W X Y Z

Hatebreed - Supremacy Of Self tab

-------------------------------------------------------------------------------
			  Supremacy of Self - Hatebreed
-------------------------------------------------------------------------------

ARTIST: Hatebreed
SONG: Supremacy of Self
ALBUM: Supremacy
TABBED BY: h8urlife
TUNING: C G C F A D 


Intro:


d|---------------------|
A|---------------------|
F|---------------------|
C|---------------------|
G|-7--6--3--4--3--1--0-|
C|-7--6--3--4--3--1--0-|



Verse:


d|------------------------------------------------|
A|------------------------------------------------|
F|------------------------------------------------|
C|--------------------------------------6-5-----3-|
G|-0-0-0-0-3--0-0-0-0-5--0-0-0-0-6--0-0-4-3-0-0-1-|
C|-0-0-0-0-3--0-0-0-0-5--0-0-0-0-6--0-0-----0-0---|
   x x x x    x x x x    x x x x    x x     x x


Pre-Chorus:
d|--------------------|
A|--------------------|
F|--------------------|
C|----------6-5-----3-|
G|-0----0-0-4-3-0-0-1-|
C|-0~~~-0-0-----0-0---|
        x x     x x 

Chorus:


d|--------------------------------------------------------|
A|--------------------------------------------------------|
F|--------------------------------------------------------|
C|--------------------------------------------------------|
G|-6-6-6-5-3--0-0-0-0-0-0-0-0--3-3-3-6-5--0-0-0-0-0-0-0-0-|
C|-6-6-6-5-3--0-0-0-0-0-0-0-0--3-3-3-6-5--0-0-0-0-0-0-0-0-|
              x x x x x x x x             x x x x x x x x

Outro:


d|---------------------|
A|---------------------|
F|---------------------|
C|---------------------|
G|-7--6--3--4--3--1--0-|
C|-7--6--3--4--3--1--0-|



Hatebreed rulez!











Tap to rate this tab
 
# A B C D E F G H I J K L M N O P Q R S T U V W X Y Z