Song name
# A B C D E F G H I J K L M N O P Q R S T U V W X Y Z

Hatebreed - Perseverance tab

intro

   d ---------------------|
   a ---------------------|
   f ---------5-7-8-------|
   c ---------3-5-6-------|
   g 1-0-0-0-0------0-----|
   c 1-0-0-0-0------0-----|
pm     . . . .

verse

     --------------------|
     --------------------|
     --------------------|
     --------------------|
     8/7---0---3-1-0-----|
     8/7---0---3-1-0-----|


Chorus

     --------   -------------------|
     --------   -------------------|
     --------   ---------5-7-8-----|
     --------x6 ---------3-5-6-----|
     1-00----   1-000000-----------|
     1-00----   1-000000-----------|
Tap to rate this tab
# A B C D E F G H I J K L M N O P Q R S T U V W X Y Z