Song name
# A B C D E F G H I J K L M N O P Q R S T U V W X Y Z

Hatebreed - Never Let It Die tab

-------------------------------------------------------------------------------
			  Never let it die - Hatebreed
-------------------------------------------------------------------------------

ARTIST: Hatebreed
SONG: Never let it die
ALBUM: Supremacy
TABBED BY: h8urlife
TUNING: C G C F A D 

Intro:



d|-----------------|-----------|
A|-----------------|-----------|
F|-----------------|-----------|
C|-----------------|-7--10--10-|
G|-1-0-0--0--0-0-0-|-5--8---8--|
C|-1-0-0--0--0-0-0-|-----------|
     x x  x  x x x   



Verse:

d|---------------------|---------------------------------------------|
A|---------------------|---------------------------------------------|
F|---------------------|---------------------------------------------|
C|-7--10---------------|------------------------7-7-7-7--10-10-10-10-|
G|-5--8--7-6-4--3--4-3-|-0-0-00-0-0-0-00-0-0-00-5-5-5-5--8--8--8--8--|
C|-------7-6-4--3--4-3-|-0-0-00-0-0-0-00-0-0-00----------------------|


CHorus:

d|------------------------------------|--------------------------------|
A|------------------------------------|--------------------------------|
F|------------------------------------|--------------------------------|
C|-7------8---------------------------|-7------8-----------------------|
G|-5------6------4-3-3-1-0--4-3-3-1-0-|-5------6------4-3-3-1-0-7--6-3-|
C|---00-0---00-0-4-3-3-1-0--4-3-3-1-0-|---00-0---00-0-4-3-3-1-0-7--6-3-|
     xx x   xx x                          xx x   xx x


Outro:

d|-----------------|------------|
A|-----------------|------------|
F|-----------------|------------|
C|-----------------|-7--10-10---|
G|-1-0-0--0--0-0-0-|-5--8--8--0-|
C|-1-0-0--0--0-0-0-|----------0-|
     x x  x  x x x



Hatebreed rulez!





Tap to rate this tab
 
# A B C D E F G H I J K L M N O P Q R S T U V W X Y Z