Song name
# A B C D E F G H I J K L M N O P Q R S T U V W X Y Z

Hatebreed - Give Wings To My Triumph tab

Hi Guys! I know its not 100% correct, but listen and play to it, i think its acceptable :).
correct me, or just write a comment. thank you!

D|----------------------------------------------------------------------|
A|----------------------------------------------------------------------|
F|----------------------------------------------------------------------|
C|-15---12---13--12-12-----15---12---13--12-12-----15---12---13--12-12--|
G|-15---12---13--12-12-----15---12---13--12-12-----15---12---13--12-12--|
C|-15---12---13--12-12-----15---12---13--12-12-----15---12---13--12-12--|

D|-----------------------|
A|-----------------------|
F|-----------------------|
C|---15---12---13--12-12-|
G|---15---12---13--12-12-|
C|---15---12---13--12-12-|
Tap to rate this tab
# A B C D E F G H I J K L M N O P Q R S T U V W X Y Z