Song name
# A B C D E F G H I J K L M N O P Q R S T U V W X Y Z

Hateen - Danger Drive tab

Guitar 1 (intro) (listen to find out the rithm and time)
e|-------------------------------------------------------|
B|-------------------------------------------------------|
G|----8---8---9---9---9---9---8---8---9---9>11---11------|
D|-------------------------------------------------------|
A|--7---7---7---7---7---7---7---7---7---7------9-----9---|
E|-------------------------------------------------------|


and then...
e|-------------------------------|
B|-------------------------------|
G|--8-8---9-9---11-11-11-11-11---|
D|-------------------------------|
A|--6-6---7-7---9--9--9--9--9----|
E|-------------------------------|


"...could I change the world tonight..."
e|-------------------------------------------------------------------------|
B|-------------------------------------------------------------------------|
G|--8888-9999-11-11-11-11-8888-9999-11>13-13-13-13-8888-9999-11-11-11-11---|
D|-------------------------------------------------------------------------|
A|-------------------------------------------------------------------------|
E|-------------------------------------------------------------------------|

e|-------------------------------------------------------------------------|
B|-------------------------------------------------------------------------|
G|--8888-9999-11-11-11-11-8888888-9999999-8888-9999-11-11-11-11-888888888--|
D|-------------------------------------------------------------------------|
A|-------------------------------------------------------------------------|
E|-------------------------------------------------------------------------|

and then...
e|-------------------------------|
B|-------------------------------|
G|--8-8---9-9---11-11-11-11-11---|
D|-------------------------------|
A|--6-6---7-7---9--9--9--9--9----|
E|-------------------------------|

"...one hundred miles per hour..."
e|----------------------------------------------------------------------------------|
B|----------------------------------------------------------------------------------|
G|--8-8--9-9--11-11-11-11-13--16----8-8--9-9--11-11-11-11---8-8--9-9--11-11-11-11---|
D|----------------------------------------------------------------------------------|
A|--6-6--7-7--9--9--9--9--11--14----6-6--7-7--9--9--9--9----6-6--7-7--9--9--9--9----|
E|----------------------------------------------------------------------------------|

e|-------------------------------------------------------------------------------|
B|-------------------------------------------------------------------------------|
G|--8-8--9-9--11-11-11-11-13----8-8--9-9--11-11-11-11----8-8--9-9--11-11-11-11---|
D|-------------------------------------------------------------------------------|
A|--6-6--7-7--9--9--9--9--11----6-6--7-7--9--9--9--9-----6-6--7-7--9--9--9--9----|
E|-------------------------------------------------------------------------------|

e|------------------------------------------------------|
B|------------------------------------------------------|
G|--8-8--9-9--11-11-11-11----8-8--9-9--11-11-11-11--8---|
D|------------------------------------------------------|
A|--6-6--7-7--9--9--9--9-----6-6--7-7--9--9--9--9---6---|
E|------------------------------------------------------|

"...wish you could see me there..."
e|-----------------------------------------------------------------|
B|-----------------------------------------------------------------|
G|---11-11-11>13---------------------11-11-11>13-13--9--13-13-13---|
D|----------------6>7>6-9--7-6>7-6---------------------------------|
A|-----------------------------------------------------------------|
E|-----------------------------------------------------------------|

e|-------------------------------------------   ------|
B|-------------------------------------------   ------|
G|-------------------------------------------   ------|
D|--9--9--9--9---11-11-11-11---13-13-13-13--<4X)--16--|
A|--7--7--7--7---9--9--9--9----11-11-11-11---   --14--|
E|----------------------------------------------------|   -(hold this until
the next part)

"back hoooooooome!!!"
e|-------------------------------|
B|-------------------------------|
G|--8-8---9-9---11-11-11-11-11---|
D|-------------------------------|
A|--6-6---7-7---9--9--9--9--9----|
E|-------------------------------|(it goes until the end)

Guitar 2 (intro 00:15)
"...I close my eyes..."
e|------------------|
B|------------------|
G|------------------|
D|--6-6-------2-2---|
A|--4-4--7-7--2-2---| (4X)
E|-------5-5--0-0---|

e|---------------------|
B|---------------------|
G|---------------------|
D|--6-6-6-6-6--6-7-9---|(4X)
A|---------------------|
E|---------------------|

and then...
e|------------------------|
B|------------------------|
G|--6-6--2-2--4-4-4-4-4---|
D|--6-6--2-2--4-4-4-4-4---|
A|--4-4--O-0--2-2-2-2-2---|
E|------------------------|

"...could I change the world tonight..."
e|------------------|
B|------------------|
G|------------------|
D|--6-6-------2-2---|
A|--4-4--7-7--2-2---| (2X)
E|-------5-5--0-0---|

e|---------------------|
B|---------------------|
G|---------------------|
D|--6-6-6-6-6--6-7-9---|(3X)
A|---------------------|
E|---------------------|

e|-----------------------|
B|-----------------------|
G|-----------------------|
D|--6-6-6-6-6--6-9-6-----| (1X)
A|-------------------7---|
E|-----------------------|

and then..
e|-------------------------------------------|
B|-------------------------------------------|
G|--2-2-2-2-2-2-2-2----6-6--2-2--4-4-4-4-4---|
D|--2-2-2-2-2-2-2-2----6-6--2-2--4-4-4-4-4---|
A|--0-0-0-0-0-0-0-0----4-4--0-0--2-2-2-2-2---|
E|-------------------------------------------|

"...one hundred miles per hour..."
e|------------|
B|------------|
G|--6-----9---|
D|--6--7--9---|(8X)
A|--4--7--7---|
E|-----5------|

and then..
e|-------------------------------------------------------|
B|-------------------------------------------------------|
G|--------------------------14-14-14-14-14-14-14-14-14---|
D|--7-7-7-7-7-7-7-7-7-7-7--------------------------------|
A|--7-7-7-7-7-7-7-7-7-7-7---12-12-12-12-12-12-12-12-12---|
E|--5-5-5-5-5-5-5-5-5-5-5--------------------------------|

"...wish you could see me there..." (02:33) (i'm not sure about
this part)
e|----------------------------|
B|----------------------------|
G|----------------------------|
D|----------------------------|
A|--7---9-7-6-7---7-4-6-7-----| (2X) (then make some feedback)
E|----------------------------|

a little bridge
e|------|
B|------|
G|--4---|
D|--4---|
A|--2---|
E|------|

"back hoooooooome!!!"
e|------------------------|
B|------------------------|
G|--6-6--2-2--4-4-4-4-4---|
D|--6-6--2-2--4-4-4-4-4---|(2X)
A|--4-4--0-0--2-2-2-2-2---|
E|------------------------|

e|------------|
B|------------|
G|--6-----9---|
D|--6--7--9---|(4X)
A|--4--7--7---|
E|-----5------|
Tap to rate this tab
# A B C D E F G H I J K L M N O P Q R S T U V W X Y Z