Song name
# A B C D E F G H I J K L M N O P Q R S T U V W X Y Z

Hateen - Big Life tab

Guitar 1
E|--------------------------------|
B|--------------------------------|
G|--9-9-9-9---7-7-7-7---5-5-5-5---|
D|--9-9-9-9---7-7-7-7---5-5-5-5---| (2X)
A|--7-7-7-7---5-5-5-5---3-3-3-3---|
E|--------------------------------|

SOLO
E|--------------------------|
B|-------8^^----------------|
G|--7--7------7>9--7--------|
D|--------------------7>9---| (2X)
A|--------------------------|
E|--------------------------|

".. I want you to know.. that I loved you everyday.. in a special and single way..
E|------------------------------------------------------------------|
B|------------------------------------------------------------------|
G|---9------------------------------------------9-------------------|
D|---9------------------------------------------9-------------------|
A|---7------------------------------------------7-------------------|
E|------------------------------------------------------------------|

"..for all my liiiiife.. for all my days..."
E|--------------------------------|
B|--------------------------------|
G|--9-9-9-9---7-7-7-7---5-5-5-5---|
D|--9-9-9-9---7-7-7-7---5-5-5-5---| (2X)
A|--7-7-7-7---5-5-5-5---3-3-3-3---|
E|--------------------------------|

and then...
".. my big life.. went away.. "
E|------------------------|
B|------------------------|
G|--9-9--5--9-9--5>7>5----|
D|--9-9--5--9-9--5>7>5----| (4X)
A|--7-7--3--7-7--3>5>3----|
E|------------------------|

"..in those university hallways alwaaaaaays....
E|--------------------------------------------------------------------------------------|
B|------------------------------------------^15^^---------------------------------------|
G|------------------------------------------------^12^^---------------------------------|
D|------------------------------------------------------12--12-12>14-14--14-14-14--12---|
A|--------------------------------------------------------------------------------------|
E|--------------------------------------------------------------------------------------|

E|--------------------------------18^^---|
B|---^15^^-------------------------------|
G|--------^12^^--------------------------|
D|--------------12--12-12>14-14----------|
A|---------------------------------------|
E|---------------------------------------|

E|---------------------------------------------------------------------------|
B|-------8^--------------8^----------^15^^-----------------------------------|
G|--7--7----7>9-7---7--7----7>9-7----------^12^^-----------------------------|
D|-----------------------------------------------12--12-12>14-14--14-14-14---|
A|---------------------------------------------------------------------------|
E|---------------------------------------------------------------------------|

"..waiting days for your phonecalls.. waiting years to be with you..."
E|-------------------------|
B|-------------------------|
G|--5-5-5------------------|
D|--5-5-5--5-5-5--7-7-7----| (4X)
A|--3-3-3--5-5-5-----------|
E|---------3-3-3--5-5-5----|

and then..
E|--------------------------------------|
B|--------------------------------15^^--|
G|--9-9--5--9-9--5>7>5------------------|
D|--9-9--5--9-9--5>7>5--<<(4x)----------|
A|--7-7--3--7-7--3>5>3------------------|
E|--------------------------------------|

"..all the times I've prayed.." (piano)


".. one last goodbye.." (DRUMS & PIANO)??


"..OOONE LAAAST GOOOOODBYYYYYE!!!"
E|----------------------------------------|
B|----------------------------------------|
G|--5-5-5-5-----------7-7-7-7--5-5-5-5----|
D|--5-5-5-5--5-5-5-5--7-7-7-7--5-5-5-5----| (2x)
A|--3-3-3-3--5-5-5-5--5-5-5-5--3-3-3-3----|
E|-----------3-3-3-3----------------------|

END...
E|--------------------------------|
B|--------------------------------|
G|--9-9-9-9---7-7-7-7---5-5-5-5---|
D|--9-9-9-9---7-7-7-7---5-5-5-5---| (3X)
A|--7-7-7-7---5-5-5-5---3-3-3-3---|
E|--------------------------------|

E|-------------------------------------------------------------------------------------|
B|------------------------------------------------------------8^------------------12^--|
G|--9-9-9-9---7-7-7-7---5-5-5---5-5-5-5-5---5-5-5---5-5-5-5-5----5-5-5---5-5-5-5-5-----|
D|--9-9-9-9---7-7-7-7---5-5-5---5-5-5-5-5---5-5-5---5-5-5-5-5----5-5-5---5-5-5-5-5-----|
A|--7-7-7-7---5-5-5-5---3-3-3---3-3-3-3-3---3-3-3---3-3-3-3-3----3-3-3---3-3-3-3-3-----|
E|-------------------------------------------------------------------------------------|

E|----------------------------------------------------|
B|-------------------^13------------------------------|
G|--5-5-5---5-5-5-5-5----5-5-5---5-5-5-5-5------------|
D|--5-5-5---5-5-5-5-5----5-5-5---5-5-5-5-5---5----2---|
A|--3-3-3---3-3-3-3-3----3-3-3---3-3-3-3-3---5----2---|
E|-------------------------------------------3----0---|

Guitar (INTRO)
E|----------------------------------------------|
B|----------------------------------------------|
G|--9-9-9-9---7-7-7-7---5-5-5-5---7--9--11--9---|
D|--9-9-9-9---7-7-7-7---5-5-5-5-----------------|
A|--7-7-7-7---5-5-5-5---3-3-3-3---5--7--9---7---|
E|----------------------------------------------|

E|-------------------------------------------------------------------------------------------|
B|-------------------------------------------------------------------------------------------|
G|--9-9-9-9--7-7-7-7--5-5-5-5--9-9-9-9--11-11-11-11--12-12-12-12--9-9-9-9--7-7-7-7--5-5-5-5--|
D|--9-9-9-9--7-7-7-7--5-5-5-5-------------------------------------9-9-9-9--7-7-7-7--5-5-5-5--|
A|--7-7-7-7--5-5-5-5--3-3-3-3--7-7-7-7--9--9--9--9---10-10-10-10--7-7-7-7--5-5-5-5--3-3-3-3--|
E|-------------------------------------------------------------------------------------------|

".. I want you to know.. that I loved you everyday.. in a special and single way..
E|------|
B|------|
G|--9---|
D|------|
A|--7---|
E|------|

"..for all my liiiiife.. for all my days..."
E|----------------------------------------------------------|
B|----------------------------------------------------------|
G|--7-7-7-7--5-5-5-5--7-9-11-9---9-9-9-9--7-7-7-7--5-5-5-5--|
D|--7-7-7-7--5-5-5-5-------------9-9-9-9--7-7-7-7--5-5-5-5--|
A|--5-5-5-5--3-3-3-3--5-7-9--7---7-7-7-7--5-5-5-5--3-3-3-3--|
E|----------------------------------------------------------|

and then...
".. my big life.. went away.. "
E|-------------------------|
B|-------------------------|
G|--9-9--7>5---9-9-9-7>5---|
D|--9-9--7>5---9-9-9-7>5---| (4x)
A|--7-7--5>3---7-7-7-5>3---|
E|-------------------------|

"..in those university hallways alwaaaaaays....
E|--------------------------------------------|
B|--------------------------------------------|
G|--9-9-9-9---7-7-7-7---5-5-5-5---7-9-11------|
D|--9-9-9-9---7-7-7-7---5-5-5-5---------------|
A|--7-7-7-7---5-5-5-5---3-3-3-3---5-7-9-------|
E|--------------------------------------------|

E|-------------------------------------------------------------------------------------|
B|-------------------------------------------------------------------------------------|
G|--9-9-9-9--11-11-11-11--12-12-12-12--16-16-16-16--9-9-9-9--7-7-7-7--5-5-5-5--7-9-11--|
D|-------------------------------------------------------------------------------------|
A|--7-7-7-7--9--9--9--9---10-10-10-10--14-14-14-14--7-7-7-7--5-5-5-5--3-3-3-3--5-7-9---|
E|-------------------------------------------------------------------------------------|

E|------------------------------|
B|------------------------------|
G|--9-9-9-9--7-7-7-7--5-5-5-5---|
D|--9-9-9-9--7-7-7-7--5-5-5-5---|
A|--7-7-7-7--5-5-5-5--3-3-3-3---|
E|------------------------------|

"..waiting days for your phonecalls.. waiting years to be with you..."
E|--------------------------------------------------------------------------------------|
B|--------------------------------------------------------------------------------------|
G|--5-5-5----------------7-9-11--12----------------7-9-11--5-5-5----------------7-9-11--|
D|--5-5-5--5-5-5--7-7-7--------------5-5-5--7-7-7----------5-5-5--5-5-5--7-7-7----------|
A|--3-3-3--5-5-5---------5-7-9---10--5-5-5---------5-7-9---3-3-3--5-5-5---------5-7-9---|
E|---------3-3-3--5-5-5--------------3-3-3--5-5-5-----------------3-3-3--5-5-5----------|

E|------------------------------------|
B|------------------------------------|
G|--12-12-12-12-----------------------|
D|----------------5-5-5--7-7-7-7-7-7--|
A|--10-10-10-10---5-5-5--7-7-7-7-7-7--|
E|----------------3-3-3--5-5-5-5-5-5--|

and then..
E|-------------------------|
B|-------------------------|
G|--9-9--7>5---9-9-9-7>5---|
D|--9-9--7>5---9-9-9-7>5---| (4x)
A|--7-7--5>3---7-7-7-5>3---|
E|-------------------------|

E|------|
B|------|
G|--9---|
D|------|
A|--7---|
E|------|

"..all the times I've prayed.." (piano)


".. one last goodbye.." (DRUMS & PIANO)??


"..OOONE LAAAST GOOOOODBYYYYYE!!!"
E|-------------------------------------------|
B|-------------------------------------------|
G|--5-5-5-5-----------7-7-7-7--9--5-5-5-5----|
D|--5-5-5-5--5-5-5-5--7-7-7-7-----5-5-5-5----| (2x)
A|--3-3-3-3--5-5-5-5--5-5-5-5--7--3-3-3-3----|
E|-----------3-3-3-3-------------------------|

end.....
E|--------------------------------------------|
B|--------------------------------------------|
G|--9-9-9-9---7-7-7-7---5-5-5-5---7-9-11------|
D|--9-9-9-9---7-7-7-7---5-5-5-5---------------|
A|--7-7-7-7---5-5-5-5---3-3-3-3---5-7-9-------|
E|--------------------------------------------|

E|-------------------------------------------------------------------------------------|
B|-------------------------------------------------------------------------------------|
G|--9-9-9-9--11-11-11-11--12-12-12-12--16-16-16-16--9-9-9-9--7-7-7-7--5-5-5-5--7-9-11--|
D|--------------------------------------------------9-9-9-9--7-7-7-7--5-5-5-5----------|
A|--7-7-7-7--9--9--9--9---10-10-10-10--14-14-14-14--7-7-7-7--5-5-5-5--3-3-3-3--5-7-9---|
E|-------------------------------------------------------------------------------------|

E|-----------------------------------------------------------------------------|
B|-----------------------------------------------------------------------------|
G|--9-9-9-9--11-11-11-11--12-12-12-12---12-12-12-12-12---9-9-9-9---9-9-9-9-9---|
D|-----------------------------------------------------------------------------|
A|--7-7-7-7--9--9--9--9---10-10-10-10---10-10-10-10-10---7-7-7-7---7-7-7-7-7---|
E|-----------------------------------------------------------------------------|

E|-------------------------------------------------------------------------------------------|
B|-------------------------------------------------------------------------------------------|
G|--9-9-9-9---9-9-9-9-9---9-12-12-12---12-12-12-12-12---12-12-12-12---12-12-12-12-12----12---|
D|-------------------------------------------------------------------------------------------|
A|--7-7-7-7---7-7-7-7-7---7-10-10-10---10-10-10-10-10---10-10-10-10---10-10-10-10-10----10---|
E|-------------------------------------------------------------------------------------------|
Tap to rate this tab
# A B C D E F G H I J K L M N O P Q R S T U V W X Y Z