Song name
# A B C D E F G H I J K L M N O P Q R S T U V W X Y Z

Hatrix - Deprivation tab

Tuned to E flat standard.

Chorus/Theme Riff-
This riff is played intermittently palm muted and un-palm muted. The tailpiece is usually 
only played when they're about to go into the verse riff, but in the middle of the song 
sometimes they play it before going back into the same riff.
|---------------------------------|---------------------------------||---------|
|---------------------------------|---------------------------------||---------|
|---------------------------------|---------------------------------||---------|
|-2-4-4-2-4-2-2-4-2-4-3-2-5-4-3---|-2-4-4-2-4-2-2-4-2-4-3-2-5-4-3---||---------|
|-0-2-2-0-2-0-0-2-0-2-1-0-3-2-1-5-|-0-2-2-0-2-0-0-2-0-2-1-0-3-2-1---||-5-4-3---|
|-------------------------------3-|---------------------------------||-3-2-1---|

Verse
|-----------------------------------------------------------------|
|-----------------------------------------------------------------|
|-----------------------------------------------------------------|
|-------------------------------------------------------------5---|
|-------------------------------------------------------------3---|
|-000000000---000---000---000-----000000000-000-0-000-0-000-0-----|

|-----------------------------------------------------------------|
|-----------------------------------------------------------------|
|-----------------------------------------------------------------|
|-------------------------------------------------------------3---|
|-------------------------------------------------------------1---|
|-000000000---000---000---000-----000000000-000-0-000-0-000-0-----|

Pre-Chorus
|-----------------------------------------------------------------|
|-----------------------------------------------------------------|
|-----------------------------------------------------------------|
|-------------------------------------------------------------5---|
|-------------------------------------------------------------3---|
|-000000000---000---000---000---000---000---000---000---000-0-----|

|-----------------------------------------------------------------|
|-----------------------------------------------------------------|
|-----------------------------------------------------------------|
|-------------------------------------------------------------3---|
|-------------------------------------------------------------1---|
|-000000000---000---000---000---000---000---000---000---000-0-----|
Tap to rate this tab
# A B C D E F G H I J K L M N O P Q R S T U V W X Y Z