Song name
# A B C D E F G H I J K L M N O P Q R S T U V W X Y Z

Haunted - The Fallout tab

-------------------------------------------------------------------------------
			     The fallout – the haunted
-------------------------------------------------------------------------------
Tabbed by: joeeee
Email:crazymcmangledurmum@hotmail.com

Tuning: d flat


|
| means play the two things that are joined together at the same time


Fades in…
Guitar 1:
db|-----------------------------------------------------------------|---------|
Ab|-----------------------------------------------------------------|---------|
E |-----------------------------------------------------------------|-9-------|
B |------------------9------------------------------------------9---|-9-------|
Gb|-10---7---7/10\7----9-6---6h9p6--10---7---7/10\7----10-7---6-----|*7-------|
Db|----0---0---------------7-----------0---0---------8------8-----7-|---------|
p.m    .   .           . . .           .   .         . .  . . .
                                                          *last time only

Guitar 2:  over guitar 1
db|------|-----|-------|-------|-------|-------|-------|-------|-------|-------|----|
Ab|------|-----|-------|-------|-------|-------|-------|-------|-------|-------|----|
E |------|-----|-------|-------|-------|---9---|-------|-------|---7---|---8---|--9-|
B |--2---|---4-|---5---|---7---|---9---|---9---|---9---|--10---|---7---|---8---|--9-|
Gb|--2---|---4-|---5---|---7---|---9---|---7---|---9--—|--10---|---5---|---6---|*-7-|
Db|--0---|---2-|---3---|---5---|---7---|-------|---7---|---8---|-------|-------|----|

		                                                    *last time only

    X4           x2              x2        whole thing x 2
db|---------0-|-----------0-|---------0-|-------------------------------------|
Ab|-----8-----|-----10------|----10-----|-------------------------------------|
E |---9---9---|--12----12---|--8----8---|-------------------------------------|
B |-----------|-------------|-----------|-------------------------------------|
Gb|-----------|-------------|-----------|-------------------------------------|
Db|-----------|-------------|-----------|-------------------------------------|

db|---------------------------------------------------------------------------|
Ab|---------------------------------------------------------------------------|
E |---------------------------------------------------------------------------|
B |--9-----9-----9-----9-----9---9-9--12----12----12----12-----12---12-12-----|
Gb|--7-----7-----7-----7-----7---7-7--10----10----10----10-----10---10-10-----|
Db|--0-0-0-0-0-0-0-0-0-0-0-0-0-0-0-0---0-0-0-0-0-0-0-0-0-0-0-0--0-0—-0--0-----|
p.m  . . . . . . . . . . . . . . . .   . . . . . . . . . . . .  . .  .  .

db|---------------------------------------------------------------------------|
Ab|---------------------------------------------------------------------------|
E |---------------------------------------------------------------------------|
B |---------------------------------------------------------------------------|
Gb|--5-----5-----5-----5-----5---5-5-4-----4-----5\2--------------------------|
Db|--3-3-3-3-3-3-3-3-3-3-3-3-3-3-3-3-2-2-2-2-2-2-3\0--------------------------|
p.m  . . . . . . . . . . . . . . . . . . . . . .

    X4           x2             x2       whole thing x 2
db|---------0-|-----------0-|---------0-|-------------------------------------|
Ab|-----8-----|-----10------|----10-----|-------------------------------------|
E |---9---9---|--12----12---|--8----8---|-------------------------------------|
B |-----------|-------------|-----------|-------------------------------------|
Gb|-----------|-------------|-----------|-------------------------------------|
Db|-----------|-------------|-----------|-------------------------------------|

Guitar 1:
X4
db|-----------------------------------------------------------------|---------|
Ab|-----------------------------------------------------------------|---------|
E |-----------------------------------------------------------------|-9-------|
B |------------------9------------------------------------------9---|-9-------|
Gb|-10---7---7/10\7----9-6---6h9p6--10---7---7/10\7----10-7---6-----|*7-------|
Db|----0---0---------------7-----------0---0---------8------8-----7-|---------|
p.m    .   .           . . .           .   .         . .  . . .               |
|                                                         *last time only     |
|                                                                             |
|Guitar 2:  over guitar 1                                                     |
db|------|-----|-------|-------|-------|-------|-------|-------|-------|-------|
Ab|------|-----|-------|-------|-------|-------|-------|-------|-------|-------|
E |------|-----|-------|-------|-------|---9---|-------|-------|---7---|---8---|
B |--2---|---4-|---5---|---7---|---9---|---9---|---9---|--10---|---7---|---8---|
Gb|--2---|---4-|---5---|---7---|---9---|---7---|---9--—|--10---|---5---|---6---|
Db|--0---|---2-|---3---|---5---|---7---|-------|---7---|---8---|-------|-------|

db|---------------------------------------------------------------------------|
Ab|---------------------------------------------------------------------------|
E |---------------------------------------------------------------------------|
B |------------------------------------------9--------------------------------|
Gb|--10---7---7/10\7~----10---7---7/10\7-/10----------------------------------|
Db|-----0---0---------------0---0---------------------------------------------|

db|---------------------------------------------------------------------------|
Ab|---------------------------------------------------------------------------|
E |---------------------------------------------------------------------------|
B |---------------------------------------------------------------------------|
Gb|--10---7---7/10\7~---------------------10-9--------------------------------|
Db|-----0---0-----------------------------------------------------------------|

    X4           x2             x2       whole thing x 2
db|---------0-|-----------0-|---------0-|-------------------------------------|
Ab|-----8-----|-----10------|----10-----|-------------------------------------|
E |---9---9---|--12----12---|--8----8---|-------------------------------------|
B |-----------|-------------|-----------|-------------------------------------|
Gb|-----------|-------------|-----------|-------------------------------------|
Db|-----------|-------------|-----------|-------------------------------------|


db|---------------------------------------------------------------------------|
Ab|---------------------------------------------------------------------------|
E |---------------------------------------------------------------------------|
B |--9-----9-----9-----9-----9---9-9--12----12----12----12-----12---12-12-----|
Gb|--7-----7-----7-----7-----7---7-7--10----10----10----10-----10---10-10-----|
Db|--0-0-0-0-0-0-0-0-0-0-0-0-0-0-0-0---0-0-0-0-0-0-0-0-0-0-0-0--0-0—-0--0-----|
p.m    . .   . .   . .   . .   .         . .   . .   . .   . .    .

db|---------------------------------------------------------------------------|
Ab|---------------------------------------------------------------------------|
E |---------------------------------------------------------------------------|
B |---------------------------------------------------------------------------|
Gb|--5-----5-----5-----5-----5---5-5-4-----4-----4----------------------------|
Db|--3-3-3-3-3-3-3-3-3-3-3-3-3-3-3-3-2-2-2-2-2-2-2----------------------------|
p.m    . .   . .   . .   . .   .       . .   . .
Guitar 1:
X4
db|-----------------------------------------------------------------|---------|
Ab|-----------------------------------------------------------------|---------|
E |-----------------------------------------------------------------|---------|
B |------------------9------------------------------------------9---|---------|
Gb|-10---7---7/10\7----9-6---6h9p6--10---7---7/10\7----10-7---6-----|---------|
Db|----0---0---------------7-----------0---0---------8------8-----7-|---------|
p.m    .   .           . . .           .   .         . .  . . .               |
|                                                         *last time only     |
|                                                                             |
|Guitar 2:  over guitar 1                                                     |
db|------|-----|-------|-------|-------|-------|-------|-------|-------|-------|
Ab|------|-----|-------|-------|-------|-------|-------|-------|-------|-------|
E |------|-----|-------|-------|-------|---9---|-------|-------|---7---|---8---|
B |--2---|---4-|---5---|---7---|---9---|---9---|---9---|--10---|---7---|---8---|
Gb|--2---|---4-|---5---|---7---|---9---|---7---|---9--—|--10---|---5---|---6---|
Db|--0---|---2-|---3---|---5---|---7---|-------|---7---|---8---|-------|-------|

The next parts all comes in one at a time but are played over the
 top of each other..

db|------|-----|-------|-------|-------|-------|-------|-------|-------|-------|
Ab|------|-----|-------|-------|-------|-------|-------|-------|-------|-------|
E |------|-----|-------|-------|-------|-------|-------|-------|-------|-------|
B |------|-----|-------|-------|-------|-------|-------|-------|-------|-------|
Gb|------|-----|-------|-------|-------|---7---|------—|-------|---5---|---6---|
Db|--0---|---2-|---3---|---5---|---7---|-------|---7---|---8---|-------|-------|
  |                                                                            |
  |                                                                            |
  |  Next bit all tremolo picked:                                             |
db|----12--10--8--7-----------------------------------------------------------|
Ab|------------------8--10----------------------------------------------------|
E |-------------------------8--9----------------------------------------------|
B |---------------------------------------------------------------------------|
Gb|---------------------------------------------------------------------------|
Db|---------------------------------------------------------------------------|
|                                                                             |
|    X4           x2             x2       whole thing x 2                     |
db|---------0-|-----------0-|---------0-|-------------------------------------|
Ab|-----8-----|-----10------|----10-----|-------------------------------------|
E |---9---9---|--12----12---|--8----8---|-------------------------------------|
B |-----------|-------------|-----------|-------------------------------------|
Gb|-----------|-------------|-----------|-------------------------------------|
Db|-----------|-------------|-----------|-------------------------------------|
  |                                                                           |
  |                                                                           |
db|-----------------------------------------------------------------|---------|
Ab|-----------------------------------------------------------------|---------|
E |-----------------------------------------------------------------|---------|
B |------------------9------------------------------------------9---|---------|
Gb|-10---7---7/10\7----9-6---6h9p6--10---7---7/10\7----10-7---6-----|---------|
Db|----0---0---------------7-----------0---0---------8------8-----7-|---------|
p.m    .   .           . . .           .   .         . .  . . .



| /  slide up
| \  slide down
| h  hammer-on
| p  pull-off
| ~  vibrato
| +  harmonic
| x  Mute note
===============================================================================
Tap to rate this tab
 
# A B C D E F G H I J K L M N O P Q R S T U V W X Y Z