Song name
# A B C D E F G H I J K L M N O P Q R S T U V W X Y Z

Haunted - The Failure tab

----------------------------------------------------------------------------
			     THE FAILURE - The Haunted
----------------------------------------------------------------------------
Tabbed by: James
Email: the.master.ofpuppets@hotmail.com

Tuning: B F# B E A d g

e|--------------------------------|
B|--------------------------------|
G|--------------9-----------------|
D|-------------------10----5--5---|
A|------5-3-----7----8-----3--3---|
E|---0-------0--0--0----0---------|

e|---------------------------------------|
B|---------------------------------------|
G|--------------9------------------------|
D|-------------------10----5--5-5--5/7---|
A|------5-3-----7----8-----3--3-3--3/5---|
E|---0-------0--0--0----0-----|-|--------|
                              P.M
Guitar I:
e|-------------------------------------------------------------------------|
B|-------------------------------------------------------------------------|
G|-------------------------------------------------------------------------|
D|-------------------------------------------------------------------------|
A|--7-x-7-x-7-7-7---8-x-8-x-8-8-8-8--7-7-7-7-7-7-5-5-5-5-5-5-3-3-3-3-3-3-2-|
E|--7-x-7-x-7-7-7---8-x-8-x-8-8-8-8--7-7-7-7-7-7-5-5-5-5-5-5-3-3-3-3-3-3-2-|

Guitar II:
e|-------------------------------------------------------------------------|
B|-------------------------------------------------------------------------|
G|-------------------------------------------------------------------------|
D|----------------------------------------------7-7-7-7-5-5-5-5-3-3-3-3-2--|
A|--7-x-7-x-7-7-7---8-x-8-x-8-8-8-8-/-10-10-10--5-5-5-5-3-3-3-3-1-1-1-1-0--|
E|--7-x-7-x-7-7-7---8-x-8-x-8-8-8-8-/-10-10-10-----------------------------|

repeat from top

e|--------------------------------------------|
B|-------0---------0---------0--------0-------|
G|-----5---------5---------5--------5---------|
D|--------------------------------------------|
A|--------------------------------------------|
E|--7---------5---------3---------3-----------|

Guitar I:
e|-------------------------------------------------------------------------|
B|-------------------------------------------------------------------------|
G|-------------------------------------------------------------------------|
D|-------------------------------------------------------------------------|
A|--2-2-2-2-2-2--------2-2-2-2-2-2----------2-2-2-2-2-2-------2-2-2-2-2-2--|
E|--2-2-2-2-2-2--------2-2-2-2-2-2----------2-2-2-2-2-2-------2-2-2-2-2-2--|

Guitar II:
e|----------0-----------------------0-----------------------0--------------|
B|------------1-----------------------1-----------------------1------------|
G|------4-------4----------------4------4----------------4------4----------|
D|----2-----------2------------2----------2------------2----------2--------|
A|--0------------------------0-----------------------0---------------------|
E|-------------------------------------------------------------------------|


then theres this riff
e|-------------------------------------------------------------------------|
B|--------------------------------------6-6-6------------------------------|
G|--------------------------------------5-5-5------------------------------|
D|----7-10-7--------------------3-3-3---3-3-3------0h3p0---0h3p0---0h3p0---|
A|-----------7--------8h12p8----3-3-3---3-3-3------------------------------|
E|--7-------------9\------------3-3-3---3-3-3----0-------2-------3---------|

e|-------------------|
B|-------------------|
G|-------------------|
D|---6/7-7-7-7\6-----|
A|---6/7-7-7-7\6-----|
E|---6/7-7-7-7\6-----|


pause
e|---------------------------|
B|---------------------------|
G|---------------------------|
D|---------------------------|
A|---6---7---7---6---6---3---|
E|---6---7---7---6---6---3---|


This is my favourite part
e|--------------------------------| repeat
B|--------------------------------|
G|--------------------------------|
D|---------3-------5--------------|
A|--5---------3-2----------8--0---|
E|-----------------------8--------|

thats the melodic part, probably the best vocal work ive ever heard.

now play it again with distortion

ill post the lead later


| /  slide up
| \  slide down
| h  hammer-on
| p  pull-off
| ~  vibrato
| +  harmonic
| x  Mute note
============================================================================
Tap to rate this tab
# A B C D E F G H I J K L M N O P Q R S T U V W X Y Z