Song name
# A B C D E F G H I J K L M N O P Q R S T U V W X Y Z

Haunted - The Shifter tab

tuning: drop c#
This is a very cool song. Some of the rhythms are quite weird and tricky so listen to it 
to get them just right and try not to rush learning it or they will probably come out wrong.
Intro:
|---------------------------------------------------|
|---------------------------------------------------|
|---------------------------------------------------|
|3-----7p3-6p3-3p0-------------7p3-6p3-3p0----------|
|3---------------------2220--------------------2220-|
|3--0-0---0---0----0-0-2220-0-0---0---0----0-0-2220-|


|---------------------------|----------|
|---------------------------|----------|
|---------------------------|----------|
|----7p3-6p3-3p0----------3-|-6--5--3--|
|--------------------5------|-6--5--3--|
|-0-0---0---0----0-3---0-6--|-6--5--3--|

|-----------------------------------------------------------|
|-----------------------------------------------------------|
|-----------------------------------------------------------|
|----7p3-6p3-3p0-----------3----7p3-6p3-3p0-----------------|x2
|--------------------5--------------------------------------|
|-0-0---0---0----0-3---0-6---0-0---0---0----0-0-0-0-0-0-0-0-|

|--------------------------------------|
|--------------------------------------|
|--------------------------------------|
|-------------2----------2-------------|x2
|-2--2-1--------2-1--------2-1------3--|
|-2------5p2--------5p2--------5p2--3--|

verse:
|-----------------------------------------------------------|
|-----------------------------------------------------------|
|-----------------------------------------------------------|
|----7p3-6p3-3p0-----------3----7p3-6p3-3p0-----------------|x4
|--------------------5--------------------------------------|
|-0-0---0---0----0-3---0-6---0-0---0---0----0-0-0-0-0-0-0-0-|

|-----------------------------------------|
|-----------------------------------------|
|-----------------------------------------|
|-0---0-6-0----0-------0---0-6-0----0--1--|x3
|-0-3--------3---3-5-6-0-3--------3----1--|
|-0--------------3-5-6-0---------------1--|

|-----------------------------------------------------|
|-----------------------------------------------------|
|-----------------------------------------------------|
|-0---0-6-0----0-------0---0-6-0----0--6----0----0----|
|-0-3--------3---3-5-6-0-3--------3-------------------|
|-0--------------3-5-6-0-----------------6----5----3--|

Chorus (clean):
|----------------------------------------|
|----------------------------------------|
|--------------------------------0---0---|
|---0---0----0---0-2----0---0----0---0-3-|
|------------------------------2---1-----|
|-0---1----2---3------0---1--------------|

|------------------------------------------|
|------------------------------------------|
|--------------------------------0---------|
|---0---0----0---0-2----0---0----0---------|
|------------------------------2---1-0-----|
|-0---1----2---3------0---1------------3-2-|

Post chorus riff:
|-----------------------------------------|
|-----------------------------------------|
|-----------------------------------------|
|--------------------------------------1--|x3
|-5p0---------5p0---------5p0----------1--|
|-----7-6-3-0-----7-6-3p0-----7-6-3-0--1--|

|---------------------------------------------------|
|---------------------------------------------------|
|---------------------------------------------------|
|--------------------------------------7-6-3-2-1-0--|
|-5p0---------5p0---------5p0----------7-6-3-2-1-0--|
|-----7-6-3-0-----7-6-3p0-----7-6-3-0--7-6-3-2-1-0--|

repeat everything starting from the verse and there is the song finished. Have fun playing.
Tap to rate this tab
# A B C D E F G H I J K L M N O P Q R S T U V W X Y Z