Song name
# A B C D E F G H I J K L M N O P Q R S T U V W X Y Z

Haunted - Failure tab

Hey guys,
 The Intro-riff of The Failure is one of my favourite.. so I looked for it at Ultimate
but found nothing...and because I like this riff so much I listened to the song and tried
figure out how to play it...I dont know if its exactly right but it sounds actually 
So if you have corrections or extensions mail me alexisonfire1111@hotmail.com thank you.

The tuning is : |B| |F#||B| |E| |G#| |C#|

Intro: (2x)
|------------------------------------------------------------------------------------------------|
|------------------------------------------------------------------------------------------------|
|---------------------------9---------------------5----------------------------------------------|
|-------------------------------------------------3-------------------5--------x--x------5s-7----|
|--------------3---2--------7-----------------------------------------3--------x--x------3s-5----|
|---------0--------------0----------------0-------0--------0-------------------x--x--------------|


|----------------------------------------------------------------------------------------|
|----------------------------------------------------------------------------------------|
|---------------------------9---------------------5--------------------------------------|
|-------------------------------------------------3-------------------5----7----8----10--|
|--------------3---2--------7-----------------------------------------3----7----8----10--|
|---------0--------------0----------------0-------0--------0---------------7----8----10--|


|--------------------------------------------------------------------------------------------|
|--------------------------------------------------------------------------------------------|
|--------------------------------------------------------------------------------------------|
|-----7------------5------------3------------2-----------------------------------------------|
|-----7------------5------------3------------2-----------------------------------------------|
|-----7------------5------------3------------2-----------------------------------------------|


So this was a part of the song... listen to it...the riff is pretty cool ;)
Besides...the song isnt finished yet^^ so..you can extend my tab maybe by copying mine
correct or extend it... thank you and have fun...
PS: love your music!
Tap to rate this tab
# A B C D E F G H I J K L M N O P Q R S T U V W X Y Z