Song name
# A B C D E F G H I J K L M N O P Q R S T U V W X Y Z

Haunted - Ocean Park tab

-------------------------------------------------------------------------------
			     Ocean Park - The Haunted
-------------------------------------------------------------------------------
Tabbed by: Devin Hobbes
Email: www.peasantsvskleptocrats.com

Tuning: drop down a step (strings from high to low: d,a,f,c,g,d) 

e|---------------------------------------------------------------------------|
B|-----2------2-----2-----2------2-------------------------------------------|
G|-------2------2-----2-----2------2-----------------------------------------|
D|---------------------------------------------------------------------------|
A|----------0-----2----------------------------------------------------------|
E|--2-------------------4------1---------------------------------------------|
Tap to rate this tab
# A B C D E F G H I J K L M N O P Q R S T U V W X Y Z