Song name
# A B C D E F G H I J K L M N O P Q R S T U V W X Y Z

Haunted - Trespass tab

#----------------------------------PLEASE NOTE---------------------------------#
#This file is the author's own work and represents their interpretation of the #
#song. You may only use this file for private study, scholarship, or research. #
#------------------------------------------------------------------------------#

TRESPASS
As recorded by The Haunted
(From the 2000 Album THE HAUNTED MADE ME DO IT)

Transcribed by Luc Brunet
	



Gtr I (D# G# C# F# A# D#) - 'Guitar 1'
Gtr II (D# G# C# F# A# D#) - 'Guitar 2'

   Intro
    Q=200
    E                        C
   4/4
    Gtr I
    PM|   PM   PM            PM   PM
    E E E E  E E S  S E    E E  E E E E E  E
||----------------------|--------------------|
||o---------------------|--------------------|
||----------------------|--------------------|
||----------------------|--------------------|
||o-----7---10---9h10p9-|-12---10---9--------|
||--0-0---0----0--------|----8----8---8-7-10-|


  G                   A C  A     B
  PM|   PM  PM  PM
  E E E E E E E E   E E Q  E +S  S Q   4x
|-----------------|--------------------||
|-----------------|-------------------o||
|-----------------|-2---5--------------||
|-----5---4---5---|--------7-(7)s9-9---||
|-----------------|---0-3-------------o||
|-3-3---3---3---3-|--------5-(5)s7-7---||


 Verse 1, 2 & 3
  $$
  C5                        G5
  PM----------------------------------|
  S S E S S E S S E S S E   S S E S S E E E E E
|-------------------------|---------------------|
|-------------------------|---------------------|
|-------------------------|---------------------|
|-5-5-5-5-5-5-5-5-5-5-5-5-|---------------------|
|-3-3-3-3-3-3-3-3-3-3-3-3-|-5-5-5-5-5-5-----5---|
|-------------------------|-3-3-3-3-3-3-0h3---3-|


  PM|   PM  PM  PM            PM
  E E E E E E E E   E E E E E E E E
|-----------------|-----------------|
|-----------------|-----------------|
|-----------------|-----------------|
|-----------------|-6h7p6-----------|
|-----5---7---8---|-------7-8---5h8-|
|-0-0---0---0---0-|-----------0-----|


  C5                        G5          B5
  PM----------------------------------|
  S S E S S E S S E S S E   S S E S S E H
|-------------------------|------------------|
|-------------------------|------------------|
|-------------------------|-------------4----|
|-5-5-5-5-5-5-5-5-5-5-5-5-|-------------4----|
|-3-3-3-3-3-3-3-3-3-3-3-3-|-5-5-5-5-5-5-2----|
|-------------------------|-3-3-3-3-3-3------|


  E5                                F#    G       F#
  PM------------------------------|
  E S S E E S S E E S S   E E S S E E +S  S E +S  S
|-----------------------|---------------------------|
|-----------------------|---------------------------|
|-----------------------|---------------------------|
|-----------------------|-----------4-(4)s5-5-(5)s4-|
|-2-2-2-2-2-2-2-2-2-2-2-|-2-2-2-2-2-----------------|
|-0-0-0-0-0-0-0-0-0-0-0-|-0-0-0-0-0-2-(2)s3-3-(3)s2-|


  C5                        G5
  PM----------------------------------|
  S S E S S E S S E S S E   S S E S S E E E E E
|-------------------------|---------------------|
|-------------------------|---------------------|
|-------------------------|---------------------|
|-5-5-5-5-5-5-5-5-5-5-5-5-|---------------------|
|-3-3-3-3-3-3-3-3-3-3-3-3-|-5-5-5-5-5-5-----5---|
|-------------------------|-3-3-3-3-3-3-0h3---3-|


      D5/AE5/BF5/C  G5/D F5/CE5/B  F5E5/B  A
  PM|   PM  PM  PM     PM  PM
  E E E E E E E E    E E E E E +S  S E +S  S
|-----------------|---------------------------|
|-----------------|---------------------------|
|-----------------|---------------------------|
|-----------------|---------------------------|
|-----5---7---8---|-10---8---7-(7)s8-7-(7)----|
|-0-0-5-0-7-0-8-0-|-10-0-8-0-7-(7)s8-7-(7)s5--|


  C5                        G5          B5
  PM----------------------------------|
  S S E S S E S S E S S E   S S E S S E H
|-------------------------|------------------|
|-------------------------|------------------|
|-------------------------|-------------4----|
|-5-5-5-5-5-5-5-5-5-5-5-5-|-------------4----|
|-3-3-3-3-3-3-3-3-3-3-3-3-|-5-5-5-5-5-5-2----|
|-------------------------|-3-3-3-3-3-3------|


  E5                                F#    G       F#
  PM------------------------------|
  E S S E E S S E E S S   E E S S E E +S  S E +S  S
|-----------------------|---------------------------|
|-----------------------|---------------------------|
|-----------------------|---------------------------|
|-----------------------|-----------4-(4)s5-5-(5)s4-|
|-2-2-2-2-2-2-2-2-2-2-2-|-2-2-2-2-2-----------------|
|-0-0-0-0-0-0-0-0-0-0-0-|-0-0-0-0-0-2-(2)s3-3-(3)s2-|


   Chorus
    E                        C
    PM|   PM   PM            PM   PM
    E E E E  E E S  S E    E E  E E E E E  E
||----------------------|--------------------|
||o---------------------|--------------------|
||----------------------|--------------------|
||----------------------|--------------------|
||o-----7---10---9-10-9-|-12---10---9--------|
||--0-0---0----0--------|----8----8---8-7-10-|


                              To Coda
  G                   A C  A     B
  PM|   PM  PM  PM
  E E E E E E E E   E E Q  E +S  S Q
|-----------------|---------------------||
|-----------------|--------------------o||
|-----------------|-2---5---------------||
|-----5---4---5---|--------7-(7)s9-9----||
|-----------------|---0-3--------------o||
|-3-3---3---3---3-|--------5-(5)s7-7----||


 Interlude
  E5
  PM|   PM   PM--|       PM   PM      PM---
  E E E E  E E E E    E  E  E E E S S E E
|------------------|----------------------|
|------------------|----------------------|
|------------------|----------------------|
|------------------|----------------------|
|-----7---10-------|--7----10---2h3p2-----|
|-0-0---0----0-0-0-|-----0----0-------5-3-|
|
| Gtr II
| W                  +W
|------------------|----------------------|
|------------------|----------------------|
|------------------|----------------------|
|-2----------------|-(2)------------------|
|-2----------------|-(2)------------------|
|-0----------------|-(0)------------------|


  F       A         B       C
 ---|   PM  PM--|     PM  PM   PM
  E E E E E E E E   E E E E  E E E +S  S
|-----------------|----------------------|
|-----------------|----------------------|
|-----------------|----------------------|
|-----3---3-------|-2---2----0---2-(2)s5-|
|-----------------|----------------------|
|-1-1---1---1-1-1-|---1---1----1---------|
|
| H       H         H        H
|-----------------|----------------------|
|-----------------|----------------------|
|-----------------|----------------------|
|-3-------7-------|-9-------10-----------|
|-----------------|----------------------|
|-1-------5-------|-7--------8-----------|


                                                                   D.S.
  E5                                        F       A         B      G
  PM|   PM   PM--|       PM   PM      PM------|   PM  PM--|
  E E E E  E E E E    E  E  E E E S S E E   E E E E E E E E   Q  E E H
|------------------|----------------------|-----------------|--------------|
|------------------|----------------------|-----------------|--------------|
|------------------|----------------------|-----------------|--------------|
|------------------|----------------------|-----3---3-------|--------------|
|-----7---10-------|--7----10---2h3p2-----|-----------------|-2--5p2-------|
|-0-0---0----0-0-0-|-----0----0-------5-3-|-1-1---1---1-1-1-|--------3-----|
|
| W                  +W                     H       H         H      H
|------------------|----------------------|-----------------|--------------|
|------------------|----------------------|-----------------|--------------|
|------------------|----------------------|-----------------|--------------|
|-2----------------|-(2)------------------|-3-------7-------|-9------5-----|
|-2----------------|-(2)------------------|-----------------|--------------|
|-0----------------|-(0)------------------|-1-------5-------|-7------3-----|


  E5
  PM|   PM   PM--|       PM   PM      PM---
  E E E E  E E E E    E  E  E E E S S E E
|------------------|----------------------|
|------------------|----------------------|
|------------------|----------------------|
|------------------|----------------------|
|-----7---10-------|--7----10---2h3p2-----|
|-0-0---0----0-0-0-|-----0----0-------5-3-|
|
| W                  +W
|------------------|----------------------|
|------------------|----------------------|
|------------------|----------------------|
|-2----------------|-(2)------------------|
|-2----------------|-(2)------------------|
|-0----------------|-(0)------------------|


  F       A         B       C
 ---|   PM  PM--|     PM  PM   PM
  E E E E E E E E   E E E E  E E E +S  S
|-----------------|----------------------|
|-----------------|----------------------|
|-----------------|----------------------|
|-----3---3-------|-2---2----0---2-(2)s5-|
|-----------------|----------------------|
|-1-1---1---1-1-1-|---1---1----1---------|
|
| H       H         H        H
|-----------------|----------------------|
|-----------------|----------------------|
|-----------------|----------------------|
|-3-------7-------|-9-------10-----------|
|-----------------|----------------------|
|-1-------5-------|-7--------8-----------|


  E5                                        F       F         B  D  B G
  PM|   PM   PM--|       PM   PM      PM------|   PM  PM--|
  E E E E  E E E E    E  E  E E E S S E E   E E E E E E E E   Q   E E H
|------------------|----------------------|-----------------|--------------|
|------------------|----------------------|-----------------|--------------|
|------------------|----------------------|-----------------|--------------|
|------------------|----------------------|-----3---3-------|--------------|
|-----7---10-------|--7----10---2h3p2-----|-----------------|-2---5p2------|
|-0-0---0----0-0-0-|-----0----0-------5-3-|-1-1---1---1-1-1-|---------3----|
|
| W                  +W                     H       H         Q   E E H
|------------------|----------------------|-----------------|--------------|
|------------------|----------------------|-----------------|--------------|
|------------------|----------------------|-----------------|--------------|
|-2----------------|-(2)------------------|-3-------7-------|--------------|
|-2----------------|-(2)------------------|-----------------|--------------|
|-0----------------|-(0)------------------|-1-------5-------|-7--10-7-3----|


   Guitar Break
    Q=90
    E5 E5    D5E5    G5   G5      A5
                                       PM------------|
    Q  E +S  S E +S   S E E   +E  E Q  S S S S S S S S
||--------------------------|--------------------------|
||o-------------------------|--------------------------|
||--------------------------|--------------------------|
||--2--9-(9)s7-9-(9)s12---5-|-(5)-7-7------------------|
||o-2--7-(7)s5-7-(7)s10---5-|-(5)-7-7------------------|
||--0-------------------0-3-|-(3)-5-5--8-5-5-5-7-3-3-3-|


  E5 E5    D5E5    G5   C5            Bb5
  Q  E +S  S E +S   S E E   +E  E E E H     3x
|-------------------------|-----0-----------||
|-------------------------|-------0--------o||
|-------------------------|---------0-3-----||
|-2--9-(9)s7-9-(9)s12---5-|-(5)-------3-----||
|-2--7-(7)s5-7-(7)s10---3-|-(3)-------1----o||
|-0-------------------0---|-----------------||


 Guitar Solo
  Q=120
  E5                                          C5   B5
   Q       Q    E   E E  E    +E   +E     +E  Q  E Q
|--------------------------|---------------------------|
|--------------------------|---------------------------|
|--------------------------|------------------5--5-4---|
|--2-------2---------------|------------------5--5-4---|
|--2-------2----------5--4-|--(4)--(4)b5r=(4)-3--3-2---|
|--0-------0----0---3------|---------------------------|
|
| Gtr II
|  Q       Q   +E   E E  E    +E   +E      E  Q  E Q
|--------------------------|---------------------------|
|-10b12===10--(10)r10-8----|---------------------------|
|-----------------------11-|-(11)-(11)b12r11--9--7-----|
|--------------------------|-----------------------9\--|
|--------------------------|---------------------------|
|--------------------------|---------------------------|


  E5                                         C5
  Q   Q        E   E E  E    +E   +E     +E  Q     E E E
|-------------------------|------------------------------|
|-------------------------|------------------------------|
|-------------------------|------------------5-----------|
|-2---2-------------------|------------------5-----------|
|-2---2--------------5--4-|--(4)--(4)b5r=(4)-3---------2-|
|-0---0--------0---3------|------------------------0-3---|
|
|                                            ~~~~~~
| Q   Q       +E   E E  E    +E   +E      E  E +Q.     E
|-------------------------|------------------------------|
|----10b12===(10)r10-8----|------------------------------|
|----------------------11-|-(11)-(11)b12r11--9-(9)-------|
|-------------------------|------------------------------|
|-------------------------|------------------------------|
|-------------------------|------------------------------|


           E5                                      C5   B5    E5
   E     E  Q        E   E E  E    +E   +E     +E  Q  E Q     Q   Q          E E E    E
|-------------------------------|---------------------------|-------------------------------|
|-------------------------------|---------------------------|-------------------------------|
|-------------------------------|------------------5--5-4---|-------------------------------|
|-----------2-------------------|------------------5--5-4---|-2---2-------------------------|
|-----------2--------------5--4-|--(4)--(4)b5r=(4)-3--3-2---|-2---2--------------5----4-----|
|--3-----0--0--------0---3------|---------------------------|-0---0----------0-3------------|
|
|  Q        Q       +E   E E  E    +E   +E      E  Q  E Q     Q   E     Q      E E    E
|-------------------------------|---------------------------|-------------------------------|
|-10b12====10b12===(10)r10-8----|---------------------------|----10b12-10b12-----8b10-8b10==|
|----------------------------11-|-(11)-(11)b12r11--9--7-----|-------------------------------|
|-------------------------------|-----------------------9\--|-------------------------------|
|-------------------------------|---------------------------|-------------------------------|
|-------------------------------|---------------------------|-------------------------------|


                                                             D.S.S. al Coda
                    C5                    A        G          G   F# G  F#
  +E  +E        +E  H           +E        H        H           Q   E  E  H
|---------------------------------------|-------------------|------------------|
|---------------------------------------|-------------------|------------------|
|-------------------5-----------(5)-----|-------------------|------------------|
|-------------------5-----------(5)-----|-7--------5--------|--5---4--5--4-----|
|-(4)-(4)b5r====(4)-3-----------(3)-----|-------------------|------------------|
|---------------------------------------|-5--------3--------|--3---2--3--2-----|
|
|                                                                        ~~
| +E.       +S   E  E T T T E Q     +T    E E  E E E  E E E    Q   E  E  H
|---------------------------------------|-------------------|------------------|
|-(8)r======(8)--7--8-7h8p7-------------|-------------------|------------------|
|---------------------------7-----------|-9-9----9--------9-|-12--11-12-11-----|
|-----------------------------9-----(9)-|-----10--------9---|------------------|
|---------------------------------------|----------7-10-----|------------------|
|---------------------------------------|-------------------|------------------|


 Outro
  Q=200
  &
  E5
  PM|   PM   PM--|       PM   PM      PM---
  E E E E  E E E E    E  E  E E E S S E E
|------------------|----------------------|
|------------------|----------------------|
|------------------|----------------------|
|------------------|----------------------|
|-----7---10-------|--7----10---2h3p2-----|
|-0-0---0----0-0-0-|-----0----0-------5-3-|
|
| W                  +W
|------------------|----------------------|
|------------------|----------------------|
|------------------|----------------------|
|-2----------------|-(2)------------------|
|-2----------------|-(2)------------------|
|-0----------------|-(0)------------------|


  F       A         B       C
 ---|   PM  PM--|     PM  PM   PM
  E E E E E E E E   E E E E  E E E +S  S
|-----------------|----------------------|
|-----------------|----------------------|
|-----------------|----------------------|
|-----3---3-------|-2---2----0---2-(2)s5-|
|-----------------|----------------------|
|-1-1---1---1-1-1-|---1---1----1---------|
|
| H       H         H        H
|-----------------|----------------------|
|-----------------|----------------------|
|-----------------|----------------------|
|-3-------7-------|-9-------10-----------|
|-----------------|----------------------|
|-1-------5-------|-7--------8-----------|


  E5                                        F       A         B      G
  PM|   PM   PM--|       PM   PM      PM------|   PM  PM--|
  E E E E  E E E E    E  E  E E E S S E E   E E E E E E E E   Q  E E H
|------------------|----------------------|-----------------|-------------|
|------------------|----------------------|-----------------|-------------|
|------------------|----------------------|-----------------|-------------|
|------------------|----------------------|-----3---3-------|-------------|
|-----7---10-------|--7----10---2h3p2-----|-----------------|-2--5p2------|
|-0-0---0----0-0-0-|-----0----0-------5-3-|-1-1---1---1-1-1-|--------3----|
|
| W                  +W                     H       H         H      H
|------------------|----------------------|-----------------|-------------|
|------------------|----------------------|-----------------|-------------|
|------------------|----------------------|-----------------|-------------|
|-2----------------|-(2)------------------|-3-------7-------|-9------5----|
|-2----------------|-(2)------------------|-----------------|-------------|
|-0----------------|-(0)------------------|-1-------5-------|-7------3----|


  E5
  PM|   PM   PM--|       PM   PM      PM---
  E E E E  E E E E    E  E  E E E S S E E
|------------------|----------------------|
|------------------|----------------------|
|------------------|----------------------|
|------------------|----------------------|
|-----7---10-------|--7----10---2h3p2-----|
|-0-0---0----0-0-0-|-----0----0-------5-3-|
|
| W                  +W
|------------------|----------------------|
|------------------|----------------------|
|------------------|----------------------|
|-2----------------|-(2)------------------|
|-2----------------|-(2)------------------|
|-0----------------|-(0)------------------|


  F       A         B       C
 ---|   PM  PM--|     PM  PM   PM
  E E E E E E E E   E E E E  E E E +S  S
|-----------------|----------------------|
|-----------------|----------------------|
|-----------------|----------------------|
|-----3---3-------|-2---2----0---2-(2)s5-|
|-----------------|----------------------|
|-1-1---1---1-1-1-|---1---1----1---------|
|
| H       H         H        H
|-----------------|----------------------|
|-----------------|----------------------|
|-----------------|----------------------|
|-3-------7-------|-9-------10-----------|
|-----------------|----------------------|
|-1-------5-------|-7--------8-----------|


  E5
  PM|   PM   PM--|       PM   PM      PM---
  E E E E  E E E E    E  E  E E E S S E E
|------------------|----------------------|
|------------------|----------------------|
|------------------|----------------------|
|------------------|----------------------|
|-----7---10-------|--7----10---2h3p2-----|
|-0-0---0----0-0-0-|-----0----0-------5-3-|
|
| W                  +W
|------------------|----------------------|
|------------------|----------------------|
|------------------|----------------------|
|-2----------------|-(2)------------------|
|-2----------------|-(2)------------------|
|-0----------------|-(0)------------------|


  F       A         B  D   B  Bb G  A       E5
 ---|   PM  PM--|
  E E E E E E E E   E.  E. E. E. E. S   +E  H.      E
|-----------------|-------------------|----------------*|
|-----------------|-------------------|----------------*|
|-----------------|-------------------|----------------*|
|-----3---3-------|-------------------|-----9\---------*|
|-----------------|-2---5--2--1-------|-----7\---------*|
|-1-1---1---1-1-1-|--------------3--5-|-(5)-0----------*|
|
| H       H         E.  E. E. E. E. S   +E  H.      E
|-----------------|-------------------|----------------*|
|-----------------|-------------------|----------------*|
|-----------------|-------------------|----------------*|
|-3-------7-------|-------------------|-----9\---------*|
|-----------------|-------------------|-----7\---------*|
|-1-------5-------|-7--10--7--6--3--5-|-(5)-0----------*|



Duration Legend
---------------
W - whole; H - half; Q - quarter; E - 8th; S - 16th; T - 32nd; X - 64th; a - acciaccatura
+ - note tied to previous; . - note dotted; .. - note double dotted
Uncapitalized letters represent notes that are staccato (1/2 duration)
Irregular groupings are notated above the duration line
Duration letters will always appear directly above the note/fret number it represents the
duration for.  Duration letters with no fret number below them represent rests.  Multi-
bar rests are notated in the form Wxn, where n is the number of bars to rest for.  Low
melody durations appear below the staff

Tablature Legend
----------------
 h   - hammer-on
 p   - pull-off
 b   - bend
 pb  - pre-bend
 r   - bend release (if no number after the r, then release immediately)
 /\  - slide into or out of (from/to "nowhere")
 s   - legato slide
 S   - shift slide
 - natural harmonic
[n]  - artificial harmonic
n(n) - tapped harmonic
 ~   - vibrato
 tr  - trill
 T   - tap
 TP  - trem. picking
 PM  - palm muting
\n/  - tremolo bar dip; n = amount to dip
 \n  - tremolo bar down
 n/  - tremolo bar up
/n\  - tremolo bar inverted dip
 =   - hold bend; also acts as connecting device for hammers/pulls
 <> - volume swell (louder/softer)
 x   - on rhythm slash represents muted slash
 o   - on rhythm slash represents single note slash

Misc Legend
-----------
 |  - bar
||  - double bar
||o - repeat start
o|| - repeat end
*|  - double bar (ending)
 :  - bar (freetime)
 $  - Segno
 &  - Coda
Tempo markers -  = BPM(8/16=s8/s16), where s8 = swing 8ths, s16 = swing 16ths

Tap to rate this tab
 
# A B C D E F G H I J K L M N O P Q R S T U V W X Y Z