Song name
# A B C D E F G H I J K L M N O P Q R S T U V W X Y Z

Haunted - The World Burns tab

#----------------------------------PLEASE NOTE---------------------------------#
#This file is the author's own work and represents their interpretation of the #
#song. You may only use this file for private study, scholarship, or research. #
#------------------------------------------------------------------------------#

THE WORLD BURNS
As recorded by The Haunted
(From the 2000 Album THE HAUNTED MADE ME DO IT)

Transcribed by Krim
	

Words by Marco Aro
Arranged by The haunted

Gtr I (D# G# C# F# A# D#) - 'Untitled'
Gtr II (D# G# C# F# A# D#) - 'Untitled'
Gtr III (D# G# C# F# A# D#) - 'Untitled'

   Intro
    Q=220
    E5
   4/4
    Gtrs I, II
       PM|     PM      PM     PM  ~
    Q  E E E E E E   E E  E E E E Q
||-----------------|-----------------|
||o----------------|-----------------|
||-----------------|-----------------|
||--2--------------|------------9----|
||o-2------8p7---5h|=7---10p7-----8--|
||--0--0-0-----0---|---0------0------|


                  1.                  2.
  E5                                      F5   Bb5
     PM|     PM      PM     PM  ~            PM
  Q  E E E E E E   E E  E E E E Q      Q  Q  E E E E
|----------------|------------------||----------------|
|----------------|-----------------o||----------------|
|----------------|------------------||----------------|
|-2--------------|------------------||----3----3-3-3--|
|-2------8p7---5h|=7---10p7--------o||-7--3----1-1-1--|
|-0--0-0-----0---|---0------0-7-6---||----1--0--------|


    E5
       PM|     PM      PM     PM
    Q  E E E E E E   E E  E E E E Q
||-----------------|-----------------|
||o----------------|-----------------|
||-----------------|-----------------|
||--2--------------|------------9----|
||o-2------8p7---5h|=7---10p7-----8--|
||--0--0-0-----0---|---0------0------|


                  1.                  2.
  E5                                      F5   Bb5
     PM|     PM      PM     PM               PM
  Q  E E E E E E   E E  E E E E Q      Q  Q  E E E E
|----------------|------------------||-----------------|
|----------------|-----------------o||-----------------|
|----------------|------------------||-----------------|
|-2--------------|------------------||----3----3-3-3---|
|-2------8p7---5h|=7---10p7--------o||-7--3----1-1-1---|
|-0--0-0-----0---|---0------0-7-6---||----1--0---------|


   Pre-Verse
    N.C.
    PM---------------------------------------------
    S S E S S E S S E S S E   S S E S S E E E E E
||--------------------------|---------------------|
||o-------------------------|---------------------|
||--------------------------|---------------------|
||--------------------------|---------------------|
||o-------------------------|---------------------|
||--0-0-0-0-0-0-0-0-0-0-0-0-|-0-0-0-0-0-0-1-4-3-1-|


                           1.               2.
                            Bb5              C5B5Bb5G5F#F5
 -----------------------|        PM----|
  S S E S S E S S E S S E   H    E E E E     E E Q  E E Q
|-------------------------|---------------||---------------|
|-------------------------|--------------o||---------------|
|-------------------------|---------------||---------------|
|-------------------------|-3-------------||-5-4-3---------|
|-------------------------|-1------------o||-3-2-1--5-4-3--|
|-0-0-0-0-0-0-0-0-0-0-0-0-|------0-1-3-4--||--------3-2-1--|


            E5/B        F5/CN.C.
    PM----|   PM|           PM----|   PM|
    E S S E E E E S +S  E   E S S E E E E E E
||------------------------|-------------------|
||o-----------------------|-------------------|
||------------------------|-------------------|
||----------2-----2-(2)s3-|---------3-----2---|
||o-0-0-0-0-2-0-0-2-(2)s3-|-----------------3-|
||------------------------|-1-1-1-1---1-1-----|


                         1.                   2.
          E5/B  Eb5/BbE5/B                     F5   G5 G#5
  PM----|   PM|           PM----|   PM| ~
  E S S E E E E E +S  S   E S S E E E E Q      H    Q  Q
|-----------------------|-------------------||------------|
|-----------------------|------------------o||------------|
|-----------------------|-------------------||------------|
|---------2-----1-(1)s2-|-------------------||-3----5--6--|
|---------2-----1-(1)s2-|---------5--------o||-3----5--6--|
|-0-0-0-0---0-0---------|-4-4-4-4---4-4-7---||-1----3--4--|


   Verse
    N.C.
    PM---------------------------------------------
    S S E S S E S S E S S E   S S E S S E E E E E
||--------------------------|---------------------|
||o-------------------------|---------------------|
||--------------------------|---------------------|
||--------------------------|---------------------|
||o-------------------------|---------------------|
||--0-0-0-0-0-0-0-0-0-0-0-0-|-0-0-0-0-0-0-1-4-3-1-|


              F5E5/BD5/AE5/BF5E5/B
 -----------|     PM      PM    PM  ~
  S S E S S E E E E E   E E E E E E Q
|---------------------|----------------|
|---------------------|----------------|
|---------------------|----------------|
|---------------------|----------------|
|-------------5-3---2-|-3---2-5---2p1--|
|-0-0-0-0-0-0-3-1-0-0-|-1-0-0-3-0------|


  N.C.
  PM---------------------------------------------
  S S E S S E S S E S S E   S S E S S E E E E E
|-------------------------|---------------------|
|-------------------------|---------------------|
|-------------------------|---------------------|
|-------------------------|---------------------|
|-------------------------|---------------------|
|-0-0-0-0-0-0-0-0-0-0-0-0-|-0-0-0-0-0-0-1-4-3-1-|


 1.
              F5E5/BD5/AE5/BF5E5/B  Bb5
 -----------|     PM      PM    PM  ~
  S S E S S E E E E E   E E E E E E Q
|---------------------|------------------||
|---------------------|-----------------o||
|---------------------|------------------||
|---------------------|------------------||
|-------------5-3---2-|-3---2-5---2-----o||
|-0-0-0-0-0-0-3-1-0-0-|-1-0-0-3-0---1----||


  2.
                            C5B5Bb5G5F#F5
  PM--------------------|
  S S E S S E S S E S S E   E E Q  E E Q
|-------------------------|---------------|
|-------------------------|---------------|
|-------------------------|---------------|
|-------------------------|-5-4-3---------|
|-------------------------|-3-2-1--5-4-3--|
|-0-0-0-0-0-0-0-0-0-0-0-0-|--------3-2-1--|


   Pre-Chorus
            E5/B  E5/B  F5/CN.C.
    PM----|   PM|           PM----|   PM|
    E S S E E E E S +S  E   E S S E E E E E E
||------------------------|-------------------|
||o-----------------------|-------------------|
||------------------------|-------------------|
||----------2-----2-(2)s3-|---------3-----2---|
||o-0-0-0-0-2-0-0-2-(2)s3-|-----------------3-|
||------------------------|-1-1-1-1---1-1-----|


                         1.                   2.
          E5/B  Eb5/BbE5/B                     F5   G5 G#5
  PM----|   PM|           PM----|   PM| ~
  E S S E E E E E +S  S   E S S E E E E Q      H    Q  Q
|-----------------------|-------------------||------------|
|-----------------------|------------------o||------------|
|-----------------------|-------------------||------------|
|---------2-----1-(1)s2-|-------------------||-3----5--6--|
|---------2-----1-(1)s2-|---------5--------o||-3----5--6--|
|-0-0-0-0---0-0---------|-4-4-4-4---4-4-7---||-1----3--4--|


 Chorus
  E5     E5    D5E5                   C5                  B5    C5 B5
                                                         3/4
     PM|              PM|       PM|          PM|
  Q  E E S +S  E Q    E E Q  Q  E E    Q   E E E  Q   E   S +S   E H
|-------------------|---------------|-------------------|---------------|
|-------------------|---------------|-13--13-----13--13-|---------------|
|-------------------|---------------|-12--12-----12--12-|---------------|
|-2------9-(9)s7-9--|-----4--5------|-10--10-----10--10-|-9-(9)s10-9----|
|-2------7-(7)s5-7--|---------------|-------------------|-9-(9)s10-9----|
|-0--0-0------------|-0-0-2--3--0-0-|--------0-0--------|-7-(7)s=8-7----|


  E5     E5    D5E5                   F5                   G5  G#5
 4/4                                                      3/4
     PM|              PM|       PM|            PM|
  Q  E E S +S  E Q    E E Q  Q  E E    S  S  E E E  H       Q   H
|-------------------|---------------|--------------------|-----------|
|-------------------|---------------|--------------------|-----------|
|-------------------|---------------|-10-10-10-----10----|-12--13----|
|-2------9-(9)s7-9--|-----4--5------|-10-10-10-----10----|-12--13----|
|-2------7-(7)s5-7--|---------------|--8--8--8------8----|-10--11----|
|-0--0-0------------|-0-0-2--3--0-0-|----------0-0-------|-----------|


  E5     E5    D5E5                   C5              B5    C5B5
 4/4                                                 3/4
     PM|              PM|       PM|        PM|
  Q  E E S +S  E Q    E E Q  Q  E E   Q  E E E Q  E   S +S  E H
|-------------------|---------------|---------------|--------------|
|-------------------|---------------|---------------|--------------|
|-------------------|---------------|-5--5-----5--5-|-4-(4)s5-4----|
|-2------9-(9)s7-9--|-----4--5------|-5--5-----5--5-|-4-(4)s5-4----|
|-2------7-(7)s5-7--|---------------|-3--3-----3--3-|-2-(2)s3-2----|
|-0--0-0------------|-0-0-2--3--0-0-|------0-0------|--------------|


  E5     E5    D5E5                   F5                            E5
 4/4
     PM|              PM|       PM|            PM|
  Q  E E S +S  E Q    E E Q  Q  E E    S  S  E E E H      Q  H    E  E
|-------------------|---------------|-------------------|--------------|
|-------------------|---------------|-------------------|--------------|
|-------------------|---------------|-10-10-10----------|--------------|
|-2------9-(9)s7-9--|-----4--5------|-10-10-10-----3----|-5--6---------|
|-2------7-(7)s5-7--|---------------|--8--8--8----------|---------2----|
|-0--0-0------------|-0-0-2--3--0-0-|----------0-0-1----|-3--4----0----|


 Guitar Solo
  N.C.
  Gtr I
                                          ~~~~~
   |----3----|                                            |---3---|
   E    E    E  E    E  E    E  E    E    H               E  E    E  E  E
|--------------------------------------|----------------------------------|
|-19h==20p==19-17------17--------------|----------------------------------|
|-------------------16------16------17-|-16b17-----------14h15p==14-------|
|------------------------------19------|----------------------------16p14h|
|--------------------------------------|----------------------------------|
|--------------------------------------|----------------------------------|
|
| Gtr II
|  PM----------------------------------------------------------------------
|  S S    E     S S  E  S S  E  S S  E    S    S E S S E  E    E     E  E
|--------------------------------------|----------------------------------|
|--------------------------------------|----------------------------------|
|--------------------------------------|----------------------------------|
|--------------------------------------|----------------------------------|
|--------------------------------------|----------------------------------|
|--0-0----0-----0-0--0--0-0--0--0-0--0-|--0----0-0-0-0-0--1----4-----3--1-|


                  G5 F5  E5  F5         E5 G5
                   ~~
                              |---3---|       |---3---|
   E    E  E    E  H          E  E    E  E E  E  E    E E  E
|--------------------------|------------------------------------|
|--------------------------|------------------------------------|
|--------------------------|-----------------16h17p==16---16----|
|-16---13-14---16-14-------|-16h17p==16h17----------------------|
|--------------------------|------------------------------------|
|--------------------------|------------------------------------|
|
|--------------|       PM          PM         PM        ~
|  S S  E  S S  E  E E E E    E    E     E E  E    E    Q
|--------------------------|------------------------------------|
|--------------------------|------------------------------------|
|--------------------------|------------------------------------|
|--------------------------|------------------------------------|
|------------------5-3---2-|--3----------2-5-------2p===1-------|
|--0-0--0--0-0--0--3-1-0-0-|--1----0-----0-3--0-----------------|


                                        ~~
   E    E  E    E  E    E E    E   E    H          E Q
|--------------------------------|-----------------------|
|--------------------------------|-----------------------|
|--------------------------------|-----------------------|
|-17p==16-19p==16p14---14-----13-|-----10---------10-9---|
|--------------------------------|-----------------------|
|--------------------------------|-----------------------|
|
|  PM-----------------------------------------------------
|  S S  E  S S  E  S S  E S S  E   S S  E S S E E  E E E
|--------------------------------|-----------------------|
|--------------------------------|-----------------------|
|--------------------------------|-----------------------|
|--------------------------------|-----------------------|
|--------------------------------|-----------------------|
|--0-0--0--0-0--0--0-0--0-0-0--0-|-0-0--0-0-0-0-1--4-3-1-|


  E5/B        F5E5/BD5/AE5/B   F5E5/BBb5
  W                     +W
|---------------------|--------------------|
|---------------------|--------------------|
|-9-------------------|-(9)\---------------|
|-9-------------------|-(9)\---------------|
|---------------------|--------------------|
|---------------------|--------------------|
|
|-----------|     PM         PM    PM  ~
| S S E S S E E E E E    E   E E E E E Q
|---------------------|--------------------|
|---------------------|--------------------|
|---------------------|--------------------|
|---------------------|--------------------|
|-------------5-3---2-|--3-----2-5---2-----|
|-0-0-0-0-0-0-3-1-0-0-|--1---0-0-3-0---1---|


 Verse
  N.C.
  Gtrs I, II
  PM---------------------------------------------
  S S E S S E S S E S S E   S S E S S E E E E E
|-------------------------|---------------------|
|-------------------------|---------------------|
|-------------------------|---------------------|
|-------------------------|---------------------|
|-------------------------|---------------------|
|-0-0-0-0-0-0-0-0-0-0-0-0-|-0-0-0-0-0-0-1-4-3-1-|


              F5E5/BD5/AE5/BF5E5/B
 -----------|     PM      PM    PM  ~
  S S E S S E E E E E   E E E E E E Q
|---------------------|-----------------|
|---------------------|-----------------|
|---------------------|-----------------|
|---------------------|-----------------|
|-------------5-3---2-|-3---2-5---2p1---|
|-0-0-0-0-0-0-3-1-0-0-|-1-0-0-3-0-------|


  N.C.
  PM---------------------------------------------
  S S E S S E S S E S S E   S S E S S E E E E E
|-------------------------|---------------------|
|-------------------------|---------------------|
|-------------------------|---------------------|
|-------------------------|---------------------|
|-------------------------|---------------------|
|-0-0-0-0-0-0-0-0-0-0-0-0-|-0-0-0-0-0-0-1-4-3-1-|


                            C5B5Bb5G5F#F5
 -----------------------|
  S S E S S E S S E S S E   E E Q  E E Q
|-------------------------|-----------------|
|-------------------------|-----------------|
|-------------------------|-----------------|
|-------------------------|-5-4-3-----------|
|-------------------------|-3-2-1--5-4-3----|
|-0-0-0-0-0-0-0-0-0-0-0-0-|--------3-2-1----|


   Pre-Chorus
            E5/B  E5/B  F5/CN.C.
    PM----|   PM|           PM----|   PM|
    E S S E E E E S +S  E   E S S E E E E E E
||------------------------|-------------------|
||o-----------------------|-------------------|
||------------------------|-------------------|
||----------2-----2-(2)s3-|---------3-----2---|
||o-0-0-0-0-2-0-0-2-(2)s3-|-----------------3-|
||------------------------|-1-1-1-1---1-1-----|


                         1.                   2.
          E5/B  Eb5/BbE5/B                     F5   G5 G#5
  PM----|   PM|           PM----|   PM| ~
  E S S E E E E S +S  E   E S S E E E E Q      H    Q  Q
|-----------------------|-------------------||------------|
|-----------------------|------------------o||------------|
|-----------------------|-------------------||------------|
|---------2-----1-(1)s2-|-------------------||-3----5--6--|
|---------2-----1-(1)s2-|---------5--------o||-3----5--6--|
|-0-0-0-0---0-0---------|-4-4-4-4---4-4-7---||-1----3--4--|


   Chorus
    E5     E5    D5E5                   C5                  B5    C5 B5
                                                           3/4
       PM|              PM|       PM|          PM|
    Q  E E S +S  E Q    E E Q  Q  E E    Q   E E E  Q   E   S +S   E H
||--------------------|---------------|-------------------|---------------|
||o-------------------|---------------|-13--13-----13--13-|---------------|
||--------------------|---------------|-12--12-----12--12-|---------------|
||--2------9-(9)s7-9--|-----4--5------|-10--10-----10--10-|-9-(9)s10-9----|
||o-2------7-(7)s5-7--|---------------|-------------------|-9-(9)s10-9----|
||--0--0-0------------|-0-0-2--3--0-0-|--------0-0--------|-7-(7)s=8-7----|


  E5     E5    D5E5                   F5                   G5  G#5
 4/4                                                      3/4
     PM|              PM|       PM|            PM|
  Q  E E S +S  E Q    E E Q  Q  E E    S  S  E E E  H       Q   H
|-------------------|---------------|--------------------|------------||
|-------------------|---------------|--------------------|-----------o||
|-------------------|---------------|-10-10-10-----10----|------------||
|-2------9-(9)s7-9--|-----4--5------|-10-10-10-----10----|-12--13-----||
|-2------7-(7)s5-7--|---------------|--8--8--8------8----|-10--11----o||
|-0--0-0------------|-0-0-2--3--0-0-|----------0-0-------|------------||


 Bridge
  Q=110
  E5
 4/4
                           >
  W          +W           +W           +W
|----------|------------|------------|--------|
|----------|------------|------------|--------|
|----------|------------|------------|--------|
|-2--------|-(2)--------|-(2)--------|-(2)----|
|-2--------|-(2)--------|-(2)--------|-(2)----|
|-0--------|-(0)--------|-(0)--------|-(0)----|


 Guitar Break
  N.C.
  Gtr III
  E E H.        +W           E E H.        E E H.
|-----0-------|-(0)--------|-----5-------|-----7-----|
|-1-----------|------------|-3-----------|-6---------|
|---2---------|------------|---4---------|---7-------|
|-------------|------------|-------------|-----------|
|-------------|------------|-------------|-----------|
|-------------|------------|-------------|-----------|


  Gtr III
  E E H.        +W           E E H.        E E H.
|-----0-------|-(0)--------|-----5-------|-----7---------|
|-1-----------|------------|-3-----------|-6-------------|
|---2---------|------------|---4---------|---7-----------|
|-------------|------------|-------------|---------------|
|-------------|------------|-------------|---------------|
|-------------|------------|-------------|---------------|
|
|                                                  Gtr I
|                                                   ~~
| W              W           W             H        H
|-------------|------------|-------------|---------------|
|-------------|------------|-------------|---------12----|
|-------------|------------|-------------|---------------|
|-------------|------------|-------------|---------------|
|-------------|------------|-------------|---------------|
|-------------|------------|-------------|---------------|


 Guitar Solo 2
  N.C.
  Gtr III
   E E H.            +W
|------0-----------|-(0)--------------|
|--1---------------|------------------|
|----2-------------|------------------|
|------------------|------------------|
|------------------|------------------|
|------------------|------------------|
|
| Gtr I
|  ~~~~~~~~~~~        ~~~
|  H        Q   Q     Q    Q   Q   Q
|------------------|------------------|
|-13-------12--10--|-10---12--13--12--|
|------------------|------------------|
|------------------|------------------|
|------------------|------------------|
|------------------|------------------|


   E    E    H.                         E   E H.
|------------5----------------------|---------7-----------------|
|--3--------------------------------|---6-----------------------|
|-------4---------------------------|-------7-------------------|
|-----------------------------------|---------------------------|
|-----------------------------------|---------------------------|
|-----------------------------------|---------------------------|
|
|                                                    ~    ~~~~~
|                                             |-3--|
|  S  S S  S T  T S  S S  S S  Q.      +E   E S  S S E E  Q  E
|-----------------------------------|---------------------------|
|-12-10-9-10-9h10-9----9------------|---------------------------|
|-------------------10---10-9-10----|-(10)-10-9h10p9p7-9-10--9--|
|-----------------------------------|---------------------------|
|-----------------------------------|---------------------------|
|-----------------------------------|---------------------------|


   E  E      Q.           E E E        E  E     E  E E E E E
|------------0-----------------------|-0--------3------3-0---|
|--1------------------------1--------|-------------1-------1-|
|-----2-------------------2---2------|----2----------2-------|
|------------------------------------|-----------------------|
|------------------------------------|-----------------------|
|------------------------------------|-----------------------|
|
|     |-3--|     |-3-|        |-3--|      |-3-|
| +E  S S  S E   S S S Q.     S S  S   E  S S S H.
|------------------------------------|-----------------------|
|------------------------------------|-----------------------|
|-(9)--------7---------9-------------|-7--------9------------|
|-----7h9h10----10p9p7--------7h9h10-|---10p9p7--------------|
|------------------------------------|-----------------------|
|------------------------------------|-----------------------|


  E  E  H.                 E  E H.
|-------5----------------|------7----------------|
|-3----------------------|-6---------------------|
|----4-------------------|----7------------------|
|------------------------|-----------------------|
|------------------------|-----------------------|
|------------------------|-----------------------|
|
| E  E  E   E  E  E E  E   E  E E   E E  E E  E
|------------------------|-----------------------|
|------10----------------|-----------------------|
|-9-10-----10----10---10-|---10----10---10---10--|
|-------------10----9----|-7----6-----7----9-----|
|------------------------|-----------------------|
|------------------------|-----------------------|


 Interlude
  A5                Am
  Gtr I
  ~
  W                 W
|-----------------|-----------------|
|-----------------|-----------------|
|-----------------|-----------------|
|-7---------------|-----------------|
|-----------------|-----------------|
|-----------------|-----------------|
|
| Gtrs I, II
|   PM|   PM|   PM    PM|   PM|   PM
| E E E E E E E E   E E E E E E E E
|-----------------|-----------------|
|-----------------|-----------------|
|-----------------|-----------------|
|-----------------|-----------------|
|-7-----7-----7---|-3-----3-----3---|
|-5-5-5-5-5-5-5-5-|-5-5-5-5-5-5-5-5-|


  G#m               F
  W                 W
|-----------------|-------------------------|
|-----------------|-------------------------|
|-----------------|-------------------------|
|-----------------|-------------------------|
|-----------------|-------------------------|
|-----------------|-------------------------|
|
|   PM|   PM|   PM    PM|   PM------------|
| E E E E E E E E   E E E E S S S S S S S S
|-----------------|-------------------------|
|-----------------|-------------------------|
|-----------------|-------------------------|
|-----------------|-------------------------|
|-2-----2-----2---|-0-----0-----------------|
|-4-4-4-4-4-4-4-4-|-1-1-1-1-0-0-3-0-0-1-0-1-|


    A5                Am
    Gtr I
      PM|   PM|   PM    PM|   PM|   PM
    E E E E E E E E   E E E E E E E E
||------------------|-----------------|
||o-----------------|-----------------|
||------------------|-----------------|
||------------------|-----------------|
||o-7-----7-----7---|-3-----3-----3---|
||--5-5-5-5-5-5-5-5-|-5-5-5-5-5-5-5-5-|
|
|   Gtr II
|       PM  PM|   PM      PM  PM|   PM
|   E E E E E E E E   E E E E E E E E
||------------------|-----------------|
||o-----------------|-----------------|
||------------------|-----------------|
||------------------|-----------------|
||o-7-----7-----7---|-3-----3-----3---|
||--5-5-5-5-5-5-5-5-|-5-5-5-5-5-5-5-5-|


  G#m               F
    PM|   PM  PM|     PM|   PM--|       PM
  E E E E E E E E   E E E E E   E   E   E
|-----------------|---------------------------||
|-----------------|--------------------------o||
|-----------------|---------------------------||
|-----------------|---------------------------||
|-2-----2-----2---|-0-----0---------0--------o||
|-4-4-4-4-4-4-4-4-|-1-1-1-1-1---1---1---1-----||
|
|     PM  PM|   PM    PM|   PM------------|
| E E E E E E E E   E E E E S S S S S S S S
|-----------------|---------------------------||
|-----------------|--------------------------o||
|-----------------|---------------------------||
|-----------------|---------------------------||
|-2-----2-----2---|-0-----0------------------o||
|-4-4-4-4-4-4-4-4-|-1-1-1-1-0-0-3-0-0-1-0-1---||


 Bridge
  Q=220
  A5
  Gtrs I, II
  E E E E E E E E   E E E E E E E E
|-----------------|-----------------|
|-----------------|-----------------|
|-2-2-2---2-2-2---|-2-2-2---2-2-2---|
|-2-2-2---2-2-2---|-2-2-2---2-2-2---|
|-0-0-0---0-0-0---|-0-0-0---0-0-0---|
|-----------------|-----------------|


 Intro riff
  E5                                 E5
  Gtr I
     PM|     PM      PM     PM  ~         PM|     PM        PM     PM  ~
  Q  E E E E E E   E E  E E E E Q     Q   E E E E E E    E  E  E E E E Q
|----------------|-----------------|------------------|-------------------|
|----------------|-----------------|------------------|-------------------|
|----------------|-----------------|------------------|-------------------|
|-2--------------|------------9----|--2---------------|-------------------|
|-2------8p7---5h|=7---10p7-----8--|--2-------8p7---5h|==7----10p7--------|
|-0--0-0-----0---|---0------0------|--0---0-0-----0---|-----0------0-7-6--|
|
| Gtr II
|    PM|     PM      PM     PM
| Q  E E E E E E   E E  E E E E Q    +W                 +W
|----------------|-----------------|------------------|-------------------|
|----------------|-----------------|------------------|-------------------|
|----------------|-----------------|------------------|-------------------|
|-2--------------|------------9----|------------------|-------------------|
|-2------8p7---5h|=7---10p7-----8--|-(8)--------------|-(8)---------------|
|-0--0-0-----0---|---0------0------|------------------|-------------------|


  E5                                     G5         F5
  +W                 +W                  W          W
|------------------|-------------------|----------|------|
|------------------|-------------------|----------|------|
|------------------|-------------------|----------|------|
|------------------|-------------------|-5--------|-3----|
|------------------|-------------------|-5--------|-3----|
|-(6)--------------|-(6)---------------|-3--------|-1----|
|
|      PM|     PM        PM     PM
|  Q   E E E E E E    E  E  E E E E Q    W          W
|------------------|-------------------|----------|------|
|------------------|-------------------|----------|------|
|------------------|-------------------|----------|------|
|--2---------------|--------------9----|-5--------|-3----|
|--2-------8p7---5h|==7----10p7-----8--|-5--------|-3----|
|--0---0-0-----0---|-----0------0------|-3--------|-1----|


  E5                                 E5
  Gtr I
     PM|     PM      PM     PM  ~         PM|     PM        PM     PM  ~
  Q  E E E E E E   E E  E E E E Q     Q   E E E E E E    E  E  E E E E Q
|----------------|-----------------|------------------|-------------------|
|----------------|-----------------|------------------|-------------------|
|----------------|-----------------|------------------|-------------------|
|-2--------------|------------9----|--2---------------|-------------------|
|-2------8p7---5h|=7---10p7-----8--|--2-------8p7---5h|==7----10p7--------|
|-0--0-0-----0---|---0------0------|--0---0-0-----0---|-----0------0-7-6--|
|
| Gtr II
|    PM|     PM      PM     PM
| Q  E E E E E E   E E  E E E E Q    +W                 +W
|----------------|-----------------|------------------|-------------------|
|----------------|-----------------|------------------|-------------------|
|----------------|-----------------|------------------|-------------------|
|-2--------------|------------9----|------------------|-------------------|
|-2------8p7---5h|=7---10p7-----8--|-(8)--------------|-(8)---------------|
|-0--0-0-----0---|---0------0------|------------------|-------------------|


  E5                                     G5         F5
  +W                 +W                  W          W
|------------------|-------------------|----------|------|
|------------------|-------------------|----------|------|
|------------------|-------------------|----------|------|
|------------------|-------------------|-5--------|-3----|
|------------------|-------------------|-5--------|-3----|
|-(6)--------------|-(6)---------------|-3--------|-1----|
|
|      PM|     PM        PM     PM
|  Q   E E E E E E    E  E  E E E E Q    W          W
|------------------|-------------------|----------|------|
|------------------|-------------------|----------|------|
|------------------|-------------------|----------|------|
|--2---------------|--------------9----|-5--------|-3----|
|--2-------8p7---5h|==7----10p7-----8--|-5--------|-3----|
|--0---0-0-----0---|-----0------0------|-3--------|-1----|


 Bridge
  N.C.
  Gtrs I, II
  PM---------------------------------------------
  S S E S S E S S E S S E   S S E S S E E E E E
|-------------------------|---------------------|
|-------------------------|---------------------|
|-------------------------|---------------------|
|-------------------------|---------------------|
|-------------------------|---------------------|
|-0-0-0-0-0-0-0-0-0-0-0-0-|-0-0-0-0-0-0-1-4-3-1-|


                            Bb5
 -----------------------|        PM----|
  S S E S S E S S E S S E   H    E E E E
|-------------------------|----------------|
|-------------------------|----------------|
|-------------------------|----------------|
|-------------------------|-3--------------|
|-------------------------|-1--------------|
|-0-0-0-0-0-0-0-0-0-0-0-0-|------0-1-3-4---|


  N.C.
  Gtr I
                                        PM----|
  S S E Q     S S E Q       S S E Q     E E E E
|-------------------------|---------------------|
|-------------------------|---------------------|
|-------------------------|---------------------|
|-------------------------|---------------------|
|-------------------------|---------------------|
|-0-0-0-------0-0-0-------|-0-0-0-------1-4-3-1-|
|
| Gtr II
|                                       PM----|
| Q     S S E Q     S S E   Q     S S E E E E E
|-------------------------|---------------------|
|-------------------------|---------------------|
|-------------------------|---------------------|
|-------------------------|---------------------|
|-------------------------|---------------------|
|-------0-0-0-------0-0-0-|-------0-0-0-1-4-3-1-|


 Outro Chorus
  E5     E5    D5E5                   C5                  B5    C5 B5
                                                         3/4
  Gtrs I, II
     PM|              PM|       PM|          PM|
  Q  E E S +S  E Q    E E Q  Q  E E    Q   E E E  Q   E   S +S   E H
|-------------------|---------------|-------------------|---------------|
|-------------------|---------------|-13--13-----13--13-|---------------|
|-------------------|---------------|-12--12-----12--12-|---------------|
|-2------9-(9)s7-9--|-----4--5------|-10--10-----10--10-|-9-(9)s10-9----|
|-2------7-(7)s5-7--|---------------|-------------------|-9-(9)s10-9----|
|-0--0-0------------|-0-0-2--3--0-0-|--------0-0--------|-7-(7)s=8-7----|


  E5     E5    D5E5                   F5                   G5  G#5
 4/4                                                      3/4
     PM|              PM|       PM|            PM|
  Q  E E S +S  E Q    E E Q  Q  E E    S  S  E E E  H       Q   H
|-------------------|---------------|--------------------|-----------|
|-------------------|---------------|--------------------|-----------|
|-------------------|---------------|-10-10-10-----10----|-----------|
|-2------9-(9)s7-9--|-----4--5------|-10-10-10-----10----|-12--13----|
|-2------7-(7)s5-7--|---------------|--8--8--8------8----|-10--11----|
|-0--0-0------------|-0-0-2--3--0-0-|----------0-0-------|-----------|


  E5     E5    D5E5                   C5              B5    C5Bb5
 4/4                                                 3/4
     PM|              PM|       PM|        PM|
  Q  E E S +S  E Q    E E Q  Q  E E   Q  E E E Q  E   S +S  E H
|-------------------|---------------|---------------|--------------|
|-------------------|---------------|---------------|--------------|
|-------------------|---------------|-5--5-----5--5-|-4-(4)s5-4----|
|-2------9-(9)s7-9--|-----4--5------|-5--5-----5--5-|-4-(4)s5-4----|
|-2------7-(7)s5-7--|---------------|-3--3-----3--3-|-2-(2)s3-2----|
|-0--0-0------------|-0-0-2--3--0-0-|------0-0------|--------------|


  E5     E5    D5E5                   F5
 4/4                                                     3/4
     PM|              PM|       PM|            PM|
  Q  E E S +S  E Q    E E Q  Q  E E    S  S  E E E H      Q  H
|-------------------|---------------|-------------------|---------|
|-------------------|---------------|-------------------|---------|
|-------------------|---------------|-10-10-10----------|---------|
|-2------9-(9)s7-9--|-----4--5------|-10-10-10-----3----|-5--6----|
|-2------7-(7)s5-7--|---------------|--8--8--8----------|---------|
|-0--0-0------------|-0-0-2--3--0-0-|----------0-0-1----|-3--4----|


  E5     E5    D5E5                   C5
 4/4
  Gtr I
     PM|              PM|       PM|
  Q  E E S +S  E Q    E E Q  Q  E E    W              +W
|-------------------|---------------|---------------|-----------------|
|-------------------|---------------|---------------|-----------------|
|-------------------|---------------|--5------------|-(5)-------------|
|-2------9-(9)s7-9--|-----4--5------|--5------------|-(5)-------------|
|-2------7-(7)s5-7--|---------------|--3------------|-(3)-------------|
|-0--0-0------------|-0-0-2--3--0-0-|---------------|-----------------|
|
| Gtr II
|    PM|              PM|       PM|
| Q  E E S +S  E Q    E E Q  Q  E E    Q.   Q.   Q    +E  Q.   E E Q
|-------------------|---------------|---------------|-----------------|
|-------------------|---------------|---------------|-----------------|
|-------------------|---------------|---------------|-----------------|
|-2------9-(9)s7-9--|-----4--5------|-10----9----7--|-(7)-5----4s5s4--|
|-2------7-(7)s5-7--|---------------|---------------|-----------------|
|-0--0-0------------|-0-0-2--3--0-0-|--8----7----5--|-(5)-3----2s3s2--|


  E5     E5    D5E5                   F5
     PM|              PM|       PM|
  Q  E E S +S  E Q    E E Q  Q  E E    W               +W
|-------------------|---------------|---------------|-------------------|
|-------------------|---------------|---------------|-------------------|
|-------------------|---------------|-10------------|-(10)--------------|
|-2------9-(9)s7-9--|-----4--5------|-10------------|-(10)--------------|
|-2------7-(7)s5-7--|---------------|--8------------|--(8)--------------|
|-0--0-0------------|-0-0-2--3--0-0-|---------------|-------------------|
|
| Gtr II
|    PM|              PM|       PM|
| Q  E E S +S  E Q    E E Q  Q  E E    Q.   Q.   Q     +E  Q.    Q  Q
|-------------------|---------------|---------------|-------------------|
|-------------------|---------------|---------------|-------------------|
|-------------------|---------------|---------------|-------------------|
|-2------9-(9)s7-9--|-----4--5------|--3----5----7--|--(7)-9----10s=9---|
|-2------7-(7)s5-7--|---------------|---------------|-------------------|
|-0--0-0------------|-0-0-2--3--0-0-|--1----3----5--|--(5)-7-----8s=7---|


  E5     E5    D5E5                   C5
     PM|              PM|       PM|
  Q  E E S +S  E Q    E E Q  Q  E E    W              +W
|-------------------|---------------|---------------|------------------|
|-------------------|---------------|---------------|------------------|
|-------------------|---------------|--5------------|-(5)--------------|
|-2------9-(9)s7-9--|-----4--5------|--5------------|-(5)--------------|
|-2------7-(7)s5-7--|---------------|--3------------|-(3)--------------|
|-0--0-0------------|-0-0-2--3--0-0-|---------------|------------------|
|
| Gtr II
|    PM|              PM|       PM|
| Q  E E S +S  E Q    E E Q  Q  E E    Q.   Q.   Q    +E  Q.   E E Q
|-------------------|---------------|---------------|------------------|
|-------------------|---------------|---------------|------------------|
|-------------------|---------------|---------------|------------------|
|-2------9-(9)s7-9--|-----4--5------|-10----9----7--|-(7)-5----4s5s4---|
|-2------7-(7)s5-7--|---------------|---------------|------------------|
|-0--0-0------------|-0-0-2--3--0-0-|--8----7----5--|-(5)-3----2s3s2---|


  E5     E5    D5E5                                           E5
     PM|              PM|       PM|
  Q  E E S +S  E Q    E E Q  Q  E E   Q.   Q.   Q    +E  Q.   H
|-------------------|---------------|--------------|----------------*|
|-------------------|---------------|--------------|----------------*|
|-------------------|---------------|--------------|----------------*|
|-2------9-(9)s7-9--|-----4--5------|-3----2----3--|-(3)-6----2\----*|
|-2------7-(7)s5-7--|---------------|--------------|----------2\----*|
|-0--0-0------------|-0-0-2--3--0-0-|-1----0----1--|-(1)-4----0\----*|
|
| Gtr II
|    PM|              PM|       PM|
| Q  E E S +S  E Q    E E Q  Q  E E   Q.   Q.   Q    +E  Q.   H
|-------------------|---------------|--------------|----------------*|
|-------------------|---------------|--------------|----------------*|
|-------------------|---------------|--------------|----------------*|
|-2------9-(9)s7-9--|-----4--5------|-3----2----3--|-(3)-6----2\----*|
|-2------7-(7)s5-7--|---------------|--------------|----------2\----*|
|-0--0-0------------|-0-0-2--3--0-0-|-1----0----1--|-(1)-4----0\----*|



Duration Legend
---------------
W - whole; H - half; Q - quarter; E - 8th; S - 16th; T - 32nd; X - 64th; a - acciaccatura
+ - note tied to previous; . - note dotted; .. - note double dotted
Uncapitalized letters represent notes that are staccato (1/2 duration)
Irregular groupings are notated above the duration line
Duration letters will always appear directly above the note/fret number it represents the
duration for.  Duration letters with no fret number below them represent rests.  Multi-
bar rests are notated in the form Wxn, where n is the number of bars to rest for.  Low
melody durations appear below the staff

Tablature Legend
----------------
 h   - hammer-on
 p   - pull-off
 b   - bend
 pb  - pre-bend
 r   - bend release (if no number after the r, then release immediately)
 /\  - slide into or out of (from/to "nowhere")
 s   - legato slide
 S   - shift slide
 - natural harmonic
[n]  - artificial harmonic
n(n) - tapped harmonic
 ~   - vibrato
 tr  - trill
 T   - tap
 TP  - trem. picking
 PM  - palm muting
\n/  - tremolo bar dip; n = amount to dip
 \n  - tremolo bar down
 n/  - tremolo bar up
/n\  - tremolo bar inverted dip
 =   - hold bend; also acts as connecting device for hammers/pulls
 <> - volume swell (louder/softer)
 x   - on rhythm slash represents muted slash
 o   - on rhythm slash represents single note slash

Misc Legend
-----------
 |  - bar
||  - double bar
||o - repeat start
o|| - repeat end
*|  - double bar (ending)
 :  - bar (freetime)
 $  - Segno
 &  - Coda
Tempo markers -  = BPM(8/16=s8/s16), where s8 = swing 8ths, s16 = swing 16ths

Tap to rate this tab
 
# A B C D E F G H I J K L M N O P Q R S T U V W X Y Z