Song name
# A B C D E F G H I J K L M N O P Q R S T U V W X Y Z

Haunted - All Against All tab

Help us improve GuitareTab! Take a short survey!
#----------------------------------PLEASE NOTE---------------------------------#
#This file is the author's own work and represents their interpretation of the #
#song. You may only use this file for private study, scholarship, or research. #
#------------------------------------------------------------------------------#

ALL AGAINST ALL
As recorded by The Haunted
(From the 2004 Album REVOLVER)

Transcribed by Haris Durakovic & Erik Alfredsson (ComfortablyDumb)
	

Words by Peter Dolving Music by Anders Björler

Gtr I (D G C F A D) - 'Distorted Left'
Gtr II (D G C F A D) - 'Distorted Right'
Gtr III (D G C F A D) - 'Distorted Center'
Gtr IV (D G C F A D) - 'Distorted Center'
Gtr V (D G C F A D) - 'Solo Guitar'

 Intro
  Q=186
  N.C.
 4/4
  Gtr I
                                      PM------|           PM            PM
  W          H    Q  E  E      +E   E E E E E E E   +E  E E  E  +E   E  E E
|----------|--------------||----------------------|-------------------------|
|----------|--------------||o---------------------|-------------------------|
|----------|-----------12-||--(12)-12-----------8-|-(8)-9---11-(11)--9----5-|
|----------|--------------||----------------------|-----------------(9)-----|
|----------|-----------10-||o-(10)-10-----------6-|-(6)-7----9--(9)--7----3-|
|----------|--------------||----------0-0-0-0-0---|-------0-------------0---|
|
| Gtr II
|                                     PM------|           PM            PM
| W          H    Q  E  E      +E   E E E E E E E   +E  E E  E  +E   E  E E
|----------|--------------||----------------------|-------------------------|
|----------|--------------||o---------------------|-------------------------|
|----------|-----------12-||--(12)-12-----------8-|-(8)-9---11-(11)--9----5-|
|----------|--------------||----------------------|-------------------------|
|----------|-----------10-||o-(10)-10-----------6-|-(6)-7----9--(9)--7----3-|
|----------|--------------||----------0-0-0-0-0---|-------0-------------0---|


        PM|   PM            PM|   PM|
  +E  E E E E E E E   +E  E E E E E E  E
|-------------------|--------------------|
|-------------------|--------------------|
|-(5)-5-----5---5-2-|-(2)-2-----2-----12-|
|-------------------|--------------------|
|-(3)-3-3-3-3-3-3-0-|-(0)-0-0-0-0-----10-|
|-------------------|-------------0-0----|
|
|       PM|   PM            PM|   PM|
| +E  E E E E E E E   +E  E E E E E E  E
|-------------------|--------------------|
|-------------------|--------------------|
|-(5)-5-----5---5-2-|-(2)-2-----2-----12-|
|-------------------|--------------------|
|-(3)-3-3-3-3-3-3-0-|-(0)-0-0-0-0-----10-|
|-------------------|-------------0-0----|


 1.
          PM------|           PM           PM
   +E   E E E E E E E   +E  E E  E  +E   E E E
|---------------------|------------------------|
|---------------------|----------------------8-|
|-(12)-12-----------8-|-(8)-9---11-(11)-12---5-|
|---------------------|------------------------|
|-(10)-10-----------6-|-(6)-7----9--(9)-10-----|
|---------0-0-0-0-0---|-------0------------0---|
|
|         PM------|           PM           PM
|  +E   E E E E E E E   +E  E E  E  +E   E E E
|---------------------|------------------------|
|---------------------|------------------------|
|-(12)-12-----------8-|-(8)-9---11-(11)-12---5-|
|---------------------|------------------------|
|-(10)-10-----------6-|-(6)-7----9--(9)-10---3-|
|---------0-0-0-0-0---|-------0------------0---|


                              PM      PM
  +E  E E E +E  E E E   +E  E E E E E E  E
|---------------------|---------------------||
|-(8)-8---7-(7)-7---7-|-(7)-7--------------o||
|-(5)-5---5-(5)-5---4-|-(4)-4-----2-----12--||
|---------------------|---------1---1-------||
|-------3---------3---|-------2---------10-o||
|---------------------|---------------0-----||
|
|       PM        PM          PM      PM
| +E  E E E +E  E E E   +E  E E E E E E  E
|---------------------|---------------------||
|---------------------|--------------------o||
|-(5)-5---5-(5)-5---4-|-(4)-4-----2-----12--||
|---------------------|---------1---1-------||
|-(3)-3-3-3-(3)-3-3-2-|-(2)-2-2---------10-o||
|---------------------|---------------0-----||


 2.
          PM------|           PM           PM
   +E   E E E E E E E   +E  E E  E  +E   E E E
|---------------------|------------------------|
|---------------------|----------------------8-|
|-(12)-12-----------8-|-(8)-9---11-(11)-12---5-|
|---------------------|------------------------|
|-(10)-10-----------6-|-(6)-7----9--(9)-10-----|
|---------0-0-0-0-0---|-------0------------0---|
|
|         PM------|           PM           PM
|  +E   E E E E E E E   +E  E E  E  +E   E E E
|---------------------|------------------------|
|---------------------|------------------------|
|-(12)-12-----------8-|-(8)-9---11-(11)-12---5-|
|---------------------|------------------------|
|-(10)-10-----------6-|-(6)-7----9--(9)-10---3-|
|---------0-0-0-0-0---|-------0------------0---|


                                        E5
                              PM      PM
  +E  E E E +E  E E E   +E  E E E E E E E   +W           +H     +E  E E E
|---------------------|-------------------|------------|------------------|
|-(8)-8---7-(7)-7---7-|-(7)-7-------------|------------|------------------|
|-(5)-5---5-(5)-5---4-|-(4)-4-----2-------|------------|----------------9-|
|---------------------|---------1---1---2-|-(2)--------|-(2)----(2)-----9-|
|-------3---------3---|-------2---------2-|-(2)--------|-(2)----(2)-----7-|
|---------------------|---------------0-0-|-(0)--------|-(0)----(0)-0-0---|
|
|       PM        PM          PM      PM                            PM|
| +E  E E E +E  E E E   +E  E E E E E E E   +W           +H     +E  E E E
|---------------------|-------------------|------------|------------------|
|---------------------|-------------------|------------|------------------|
|-(5)-5---5-(5)-5---4-|-(4)-4-----2-------|------------|----------------9-|
|---------------------|---------1---1---2-|-(2)--------|-(2)----(2)-----9-|
|-(3)-3-3-3-(3)-3-3-2-|-(2)-2-2---------2-|-(2)--------|-(2)----(2)-----7-|
|---------------------|---------------0-0-|-(0)--------|-(0)----(0)-0-0---|


  Gtrs I, II
  +W           +H       Q.   E
|------------|-----------------||
|------------|-----------------||
|-(9)--------|-(9)-------------||
|-(9)--------|-(9)----/14\---2-||
|-(7)--------|-(7)----/14\---2-||
|------------|--------/12\---0-||


   Verse
    $
    E5                        C5                        D5  E5
                            PM
    +W           +H     E E E E   +W           +H     E E E E
||-------------|----------------|------------|-----------------|
||o------------|----------------|------------|-----------------|
||-------------|--------------5-|-(5)--------|-(5)----5s7-7----|
||--(2)--------|-(2)----------5-|-(5)--------|-(5)----5s7-7-2--|
||o-(2)--------|-(2)----------3-|-(3)--------|-(3)----3s5-5-2--|
||--(0)--------|-(0)----3p0-0---|------------|--------------0--|


              1.
                          N.C.
  +W           +H     +E  E E E
|------------|------------------|
|------------|------------------|
|------------|------------4-4-3-|
|-(2)--------|-(2)----(2)-------|
|-(2)--------|-(2)----(2)-2-2-1-|
|-(0)--------|-(0)----(0)-------|


                                            E5
      PM----------|
  +E  E E E E E E E   Q  +Q     +E  +E  +E  E
|-------------------|--------------------------||
|-------------------|-------------------------o||
|-(3)---3-----3-----|-3--(3)b4--(3)-(3)-(3)----||
|-----2-----2-----2-|-----------------------2--||
|-(1)-----1-----1---|-----------------------2-o||
|-------------------|-----------------------0--||


  2.
             N.C.                                     E5
                         PM--------------------| ~~
  +H     +E  E E E   +E  E E E E E E E   E E E E Q.   E
|------------------|-------------------|----------------|
|------------------|-------------------|----------------|
|------------------|-------------------|----------------|
|-(2)----(2)-------|-----5-----5-----5-|-----5--------2-|
|-(2)----(2)-5-5-4-|-(4)---7-4---7-4---|-7-4---7-4----2-|
|-(0)----(0)-------|-------------------|--------------0-|


               C5      B5  F#5   G5  A5                  C5                  B5
                         PM        PM          PM|   PM|           PM|   PM|
  +H.      +E  E   +E  E E E +E  E E E   +E  E E E E E E E   +E  E E E E E E E
|----------------|---------------------|-------------------|-------------------|
|----------------|---------------------|-------------------|-------------------|
|--------------5-|-(5)-4-------------2-|-(2)-2-----2-----5-|-(5)-5-----5-----4-|
|-(2)------(2)-5-|-(5)-4---4-(4)-5---2-|-(2)-2-----2-----5-|-(5)-5-----5-----4-|
|-(2)------(2)-3-|-(3)-2---4-(4)-5---0-|-(0)-0-0-0-0-0-0-3-|-(3)-3-3-3-3-3-3-2-|
|-(0)------(0)---|-------0-2-(2)-3-0---|-------------------|-------------------|


                  A5                  F#5
  Gtr I
        PM|   PM|           PM|   PM|
  +E  E E E E E E E   +E  E E E E E E E
|-------------------|-------------------|
|-------------------|-------------------|
|-(4)-4-----4-------|-------------------|
|-(4)-4-----4-----4-|-(4)-4-----4-----4-|
|-(2)-2-2-2-2-2-2-0-|-(0)-0-0-0-0-0-0-4-|
|-------------------|-----------------2-|
|
| Gtr II
|       PM|   PM|           PM|   PM|
| +E  E E E E E E E   +E  E E E E E E E
|-------------------|-------------------|
|-------------------|-------------------|
|-(4)-4-----4-----2-|-(2)-2-----2-------|
|-(4)-4-----4-----2-|-(2)-2-----2-----4-|
|-(2)-2-2-2-2-2-2-0-|-(0)-0-0-0-0-0-0-4-|
|-------------------|-----------------2-|


                                N.C.  E/Bb
                                      Gtr III
        PM|   PM|           PM|
  +E  E E E E E E E   +E  E E E E E E E
|-------------------|-------------------||
|-------------------|-------------------||
|-------------------|-----------------3-||
|-(4)-4-----4-----4-|-(4)-4-------------||
|-(4)-4-----4-----4-|-(4)-4-------------||
|-(2)-2-2-2-2-2-2-2-|-(2)-2-2-2-3-2-0---||
|
|                                     Gtrs I, II
|       PM|   PM|           PM|
| +E  E E E E E E E   +E  E E E E E E E
|-------------------|-------------------||
|-------------------|-------------------||
|-------------------|-----------------3-||
|-(4)-4-----4-----4-|-(4)-4-----------2-||
|-(4)-4-----4-----4-|-(4)-4-----------1-||
|-(2)-2-2-2-2-2-2-2-|-(2)-2-2-2-3-2-0---||


 Pre-Chorus
                                          B5
  +E  E E E E +E  E E    E  E E +E  E E E E
|-------0-------------|--0--------------0---|
|-----2---2---------2-|-----2---------2---4-|
|-(3)-------3-(3)-3---|-------3-(3)-3-------|
|---------------------|---------------------|
|---------------------|---------------------|
|---------------------|---------------------|
|
| +E  E E E E  E  E E   +E  E E  E  E E E E
|---------------------|---------------------|
|---------------------|---------------------|
|-(3)-3-----3-------3-|-(3)-3-------3-----4-|
|-(2)-2-----2-------2-|-(2)-2-------2-----4-|
|-(1)-1-1-1-1--1--1-1-|-(1)-1-1--1--1-1-1-2-|
|---------------------|---------------------|


                      N.C.                E/Bb
   E  E E E E +E  +E  E    E  E E E E E E E
|-------0---------------|-----2-------------|
|-----4---4-------------|--5----5-----------|
|--4--------4-(4)-(4)-4-|---------4-------3-|
|-----------------------|-------------------|
|-----------------------|---------------0---|
|-----------------------|-----------2-3-----|
|
|                               PM|
| +E  E E E E  E   E  E   +E  E E E E E E E
|-----------------------|-------------------|
|-----------------------|-------------------|
|-(4)-4-----4-----------|-----------------3-|
|-(4)-4-----4-----------|-----------------2-|
|-(2)-2-2-2-2--2---2----|---------------0-1-|
|---------------------2-|-(2)-2-2-2-2-3-----|


                                          B5
  +E  E E E E +E  E E    E  E E +E  E E E E
|-------0-------------|--0--------------0---|
|-----2---2---------2-|-----2---------2---4-|
|-(3)-------3-(3)-3---|-------3-(3)-3-------|
|---------------------|---------------------|
|---------------------|---------------------|
|---------------------|---------------------|
|
| +E  E E E E  E  E E   +E  E E  E  E E E E
|---------------------|---------------------|
|---------------------|---------------------|
|-(3)-3-----3-------3-|-(3)-3-------3-----4-|
|-(2)-2-----2-------2-|-(2)-2-------2-----4-|
|-(1)-1-1-1-1--1--1-1-|-(1)-1-1--1--1-1-1-2-|
|---------------------|---------------------|
|
|  W                     W
|---------------------|---------------------|
|---------------------|---------------------|
|---------------------|---------------------|
|---------------------|---------------------|
|---------------------|---------------------|
|---------------------|---------------------|


                      D5          B/Eb      E5
                      Gtr I
   E  E E E E +E  +E  E   +E  E E E +E  E E  E
|-------0---------------|----------------------||
|-----4---4-------------|----------------------||
|--4--------4-(4)-(4)-7-|-(7)-7---8-(8)-8---12-||
|---------------------7-|-(7)-7---9-(9)-9------||
|---------------------5-|-(5)-5---6-(6)-6---10-||
|-----------------------|-------0---------0----||
|
|                     Gtr II
| +E  E E E E  E   E  E   +E  E E E +E  E E  E
|-----------------------|----------------------||
|-----------------------|----------------------||
|-(4)-4-----4---------7-|-(7)-7---8-(8)-8---12-||
|-(4)-4-----4---------7-|-(7)-7---9-(9)-9------||
|-(2)-2-2-2-2--2---2--5-|-(5)-5---6-(6)-6---10-||
|-----------------------|-------0---------0----||
|
|                         Gtr III
|  W                       H.             E  E
|-----------------------|----------------------||
|-----------------------|----------------------||
|-----------------------|--------------------9-||
|-----------------------|--------------------9-||
|-----------------------|--------------------7-||
|-----------------------|----------------------||


   + E + I  Chorus
    $$
                        B5                          C5
            PM------|             PM             PM
     +E   E E E E E  E  E   +E  E E  E  +E   E   E   E
||------------------------|----------------------------|
||o-----------------------|----------------------------|
||--(12)-12-------------8-|-(8)-9---11-(11)--9-------5-|
||------------------------|-----------------(9)--------|
||o-(10)-10-------------6-|-(6)-7----9--(9)--7-------3-|
||----------0-0-0-0--0----|-------0--------------0-----|
|
|           PM------|             PM             PM
|    +E   E E E E E  E  E   +E  E E  E  +E   E   E   E
||------------------------|----------------------------|
||o-----------------------|----------------------------|
||--(12)-12-------------8-|-(8)-9---11-(11)--9-------5-|
||------------------------|----------------------------|
||o-(10)-10-------------6-|-(6)-7----9--(9)--7-------3-|
||----------0-0-0-0--0----|-------0--------------0-----|
|
|    +H.            +E  E   +H.                 +E   E
||------------------------|----------------------------|
||o-----------------------|----------------------------|
||---(9)------------(9)---|----------------------------|
||---(9)------------(9)-9-|-(9)-----------------(9)-10-|
||o--(7)------------(7)-9-|-(9)-----------------(9)-10-|
||----------------------7-|-(7)-----------------(7)--8-|


                                        To Coda
                                        To Coda
                      A5                    E5
         PM|   PM               PM|   PM|
   +E  E E E E E   E  E   +E  E E E E E  E   E
|-----------------------|-----------------------|
|-----------------------|-----------------------|
|--(5)-5-----5-----5--2-|-(2)-2-----2-------12--|
|-----------------------|-----------------------|
|--(3)-3-3-3-3-3---3--0-|-(0)-0-0-0-0-------10--|
|-----------------------|-------------0--0------|
|
|        PM|   PM               PM|   PM|
|  +E  E E E E E   E  E   +E  E E E E E  E   E
|-----------------------|-----------------------|
|-----------------------|-----------------------|
|--(5)-5-----5-----5--2-|-(2)-2-----2-------12--|
|-----------------------|-----------------------|
|--(3)-3-3-3-3-3---3--0-|-(0)-0-0-0-0-------10--|
|-----------------------|-------------0--0------|
|
|  +H.            +E  E   +H.           +E   E
|-----------------------|-----------------------|
|-----------------------|-----------------------|
|-----------------------|--------------------9--|
|-(10)-----------(10)-7-|-(7)-----------(7)--9--|
|-(10)-----------(10)-7-|-(7)-----------(7)--7--|
|--(8)------------(8)-5-|-(5)-----------(5)-----|


  1.
                      G5                         A
          PM------|             PM            PM
   +E   E E E E E  E  E   +E  E E  E  +E   E  E    E
|-----------------------|-----------------------------|
|-----------------------|--------------------------8--|
|-(12)-12-------------8-|-(8)-9---11-(11)-12-------5--|
|-----------------------|-----------------------------|
|-(10)-10-------------6-|-(6)-7----9--(9)-10----------|
|---------0-0-0-0--0----|-------0-------------0-------|
|
|         PM------|             PM            PM
|  +E   E E E E E  E  E   +E  E E  E  +E   E  E    E
|-----------------------|-----------------------------|
|-----------------------|-----------------------------|
|-(12)-12-------------8-|-(8)-9---11-(11)-12-------5--|
|-----------------------|-----------------------------|
|-(10)-10-------------6-|-(6)-7----9--(9)-10-------3--|
|---------0-0-0-0--0----|-------0-------------0-------|
|
|  +H.            +E  E   +H.                +E    E
|-----------------------|-----------------------------|
|-----------------------|-----------------------------|
|--(9)------------(9)---|------------------------(14)-|
|--(9)------------(9)-5-|-(5)----------------(5)------|
|--(7)------------(7)-5-|-(5)----------------(5)-(12)-|
|---------------------3-|-(3)----------------(3)------|


                                  B5                    E5
                                            PM       PM
   +E    E    E    E   +E    E  E E   +E  E E E E E  E   E
|-----------------------------------|-----------------------||
|--(8)---8---------7---(7)---7----7-|-(7)-7----------------o||
|--(5)---5---------5---(5)---5----4-|-(4)-4-----2-------12--||
|-----------------------------------|---------1---1---------||
|-------------3-----------------3---|-------2-----------10-o||
|-----------------------------------|----------------0------||
|
|             PM                PM          PM       PM
|  +E    E    E    E   +E    E  E E   +E  E E E E E  E   E
|-----------------------------------|-----------------------||
|-----------------------------------|----------------------o||
|--(5)---5---------5---(5)---5----4-|-(4)-4-----2-------12--||
|-----------------------------------|---------1---1---------||
|--(3)---3----3----3---(3)---3--3-2-|-(2)-2-2-----------10-o||
|-----------------------------------|----------------0------||
|
|                               PM
|   E    E    E    E    E    E  E E   +H.           +E   E
|-----------------------------------|-----------------------||
|-----------------------------------|----------------------o||
|-(14)-(14)-(14)-(14)-(14)-(14)-----|--------------------9--||
|---------------------------------9-|-(9)-----------(9)--9--||
|-(12)-(12)-(12)-(12)-(12)-(12)---9-|-(9)-----------(9)--7-o||
|-------------------------------8-7-|-(7)-----------(7)-----||


  2.
                      G5                         A
          PM------|             PM            PM
   +E   E E E E E  E  E   +E  E E  E  +E   E  E    E
|-----------------------|-----------------------------|
|-----------------------|--------------------------8--|
|-(12)-12-------------8-|-(8)-9---11-(11)-12-------5--|
|-----------------------|-----------------------------|
|-(10)-10-------------6-|-(6)-7----9--(9)-10----------|
|---------0-0-0-0--0----|-------0-------------0-------|
|
|         PM------|             PM            PM
|  +E   E E E E E  E  E   +E  E E  E  +E   E  E    E
|-----------------------|-----------------------------|
|-----------------------|-----------------------------|
|-(12)-12-------------8-|-(8)-9---11-(11)-12-------5--|
|-----------------------|-----------------------------|
|-(10)-10-------------6-|-(6)-7----9--(9)-10-------3--|
|---------0-0-0-0--0----|-------0-------------0-------|
|
|  +H.            +E  E   +H.                +E    E
|-----------------------|-----------------------------|
|-----------------------|-----------------------------|
|--(9)------------(9)---|------------------------(14)-|
|--(9)------------(9)-5-|-(5)----------------(5)------|
|--(7)------------(7)-5-|-(5)----------------(5)-(12)-|
|---------------------3-|-(3)----------------(3)------|


                                            D.S. al Coda
                                  B5                    E5
                                            PM       PM
   +E    E    E    E   +E    E  E E   +E  E E E E E  E  E
|-----------------------------------|---------------------||
|--(8)---8---------7---(7)---7----7-|-(7)-7---------------||
|--(5)---5---------5---(5)---5----4-|-(4)-4-----2---------||
|-----------------------------------|---------1---1-----2-||
|-------------3-----------------3---|-------2-----------2-||
|-----------------------------------|----------------0--0-||
|
|             PM                PM          PM       PM
|  +E    E    E    E   +E    E  E E   +E  E E E E E  E  E
|-----------------------------------|---------------------||
|-----------------------------------|---------------------||
|--(5)---5---------5---(5)---5----4-|-(4)-4-----2---------||
|-----------------------------------|---------1---1-----2-||
|--(3)---3----3----3---(3)---3--3-2-|-(2)-2-2-----------2-||
|-----------------------------------|----------------0--0-||
|
|                               PM
|   E    E    E    E    E    E  E E   +H.           +E  E
|-----------------------------------|---------------------||
|-----------------------------------|---------------------||
|-(14)-(14)-(14)-(14)-(14)-(14)-----|---------------------||
|---------------------------------9-|-(9)-----------(9)---||
|-(12)-(12)-(12)-(12)-(12)-(12)---9-|-(9)-----------(9)---||
|-------------------------------8-7-|-(7)-----------(7)---||


  &
  E5                  G5                         A
          PM------|             PM            PM
    E   E E E E E  E  E   +E  E E  E  +E   E  E    E
|-----------------------|-----------------------------|
|-----------------------|--------------------------8--|
|-(12)-12-------------8-|-(8)-9---11-(11)-12-------5--|
|-----------------------|-----------------------------|
|-(10)-10-------------6-|-(6)-7----9--(9)-10----------|
|---------0-0-0-0--0----|-------0-------------0-------|
|
|         PM------|             PM            PM
|   E   E E E E E  E  E   +E  E E  E  +E   E  E    E
|-----------------------|-----------------------------|
|-----------------------|-----------------------------|
|-(12)-12-------------8-|-(8)-9---11-(11)-12-------5--|
|-----------------------|-----------------------------|
|-(10)-10-------------6-|-(6)-7----9--(9)-10-------3--|
|---------0-0-0-0--0----|-------0-------------0-------|
|
|   H.            +E  E   +H.                +E    E
|-----------------------|-----------------------------|
|-----------------------|-----------------------------|
|--(9)------------(9)---|------------------------(14)-|
|--(9)------------(9)-5-|-(5)----------------(5)------|
|--(7)------------(7)-5-|-(5)----------------(5)-(12)-|
|---------------------3-|-(3)----------------(3)------|


                                  B5
   +E    E    E    E   +E    E  E E   +H     H
|-----------------------------------|-------------||
|--(8)---8---------7---(7)---7----7-|-(7)---------||
|--(5)---5---------5---(5)---5----4-|-(4)----8----||
|-----------------------------------|-------------||
|-------------3-----------------3---|--------6----||
|-----------------------------------|-------------||
|
|             PM                PM
|  +E    E    E    E   +E    E  E E   +W
|-----------------------------------|-------------||
|-----------------------------------|-------------||
|--(5)---5---------5---(5)---5----4-|-(4)---------||
|-----------------------------------|-------------||
|--(3)---3----3----3---(3)---3--3-2-|-(2)---------||
|-----------------------------------|-------------||
|
|                               PM
|   E    E    E    E    E    E  E E   +W
|-----------------------------------|-------------||
|-----------------------------------|-------------||
|-(14)-(14)-(14)-(14)-(14)-(14)-----|-------------||
|---------------------------------9-|-(9)---------||
|-(12)-(12)-(12)-(12)-(12)-(12)---9-|-(9)---------||
|-------------------------------8-7-|-(7)---------||


 Interlude
  N.C.
  Gtr IV
   E  E E E E E Q    +W            E  E E E E E Q    +W
|------------------|------------|------------------|--------|
|------------------|------------|------------------|--------|
|------------------|------------|------------------|--------|
|------------------|------------|------------------|--------|
|--5h=7-7-5h7-7----|------------|--5S=7-7----------|--------|
|---------------0--|-(0)--------|--5S=7-7-5h7p5-3--|-(3)----|
|
|  >
| +W                 +W           +W                  W
|------------------|------------|------------------|--------|
|------------------|------------|------------------|--------|
|-(4)--------------|-(4)--------|-(4)--------------|--------|
|------------------|------------|------------------|--------|
|-(2)--------------|-(2)--------|-(2)--------------|--------|
|------------------|------------|------------------|--------|
|
|  >
| +W                 +W           +W                  W
|------------------|------------|------------------|--------|
|------------------|------------|------------------|--------|
|------------------|------------|------------------|--------|
|-(9)--------------|-(9)--------|-(9)--------------|--------|
|-(9)--------------|-(9)--------|-(9)--------------|--------|
|-(7)--------------|-(7)--------|-(7)--------------|--------|


  Gtr I
  E E E E E E Q    +W           H    H       H     E E E E
|----------------|------------|-----------|----------------|
|----------------|------------|-----------|----------------|
|----------------|------------|-----------|----------------|
|----------------|------------|-9----5----|--4-----4S5S4---|
|-5h7-7-5h7-7----|------------|-----------|--------------5-|
|-------------6--|-(6)--------|-7----3----|--2-----2S3S2---|
|
| Gtr II
| E E E E E E Q    +W           W           +W
|----------------|------------|-----------|----------------|
|----------------|------------|-----------|----------------|
|----------------|------------|-----------|----------------|
|----------------|------------|-9---------|-(9)------------|
|-5h7-7-5h7-7----|------------|-----------|----------------|
|-------------6--|-(6)--------|-7---------|-(7)------------|


  Gtrs I, II
  E E E E E E Q    +W           E E E E E E Q    +W
|----------------|------------|----------------|--------|
|----------------|------------|----------------|--------|
|----------------|------------|----------------|--------|
|----------------|------------|----------------|--------|
|-5h7-7-5h7-7----|------------|-5S7-7----------|--------|
|-------------0--|-(0)--------|-5S7-7-5h7p5-3--|-(3)----|


  Gtr I
  E E E E E E Q    +W           H    H       H     E E Q
|----------------|------------|-----------|---------------||
|----------------|------------|-----------|---------------||
|----------------|------------|-----------|---------------||
|----------------|------------|-9----5----|--4-----4S5S4--||
|-5h7-7-5h7-7----|------------|-----------|---------------||
|-------------6--|-(6)--------|-7----3----|--2-----2S3S2--||
|
| Gtr II
| E E E E E E Q    +W           W           +W
|----------------|------------|-----------|---------------||
|----------------|------------|-----------|---------------||
|----------------|------------|-----------|---------------||
|----------------|------------|-9---------|-(9)-----------||
|-5h7-7-5h7-7----|------------|-----------|---------------||
|-------------6--|-(6)--------|-7---------|-(7)-----------||


    N.C.
    E E +E  E E E Q    +Q   E E E E Q
||-------------------|-----------------|
||o------------------|-----------------|
||-------------------|-----------------|
||-------------------|-----------------|
||o-5h7-(7)-5h7-7----|------5h7-7-7----|
||----------------0--|-(0)----------0--|
|
|   E E +E  E E E Q    +Q   E E E E Q
||-------------------|-----------------|
||o------------------|-----------------|
||-------------------|-----------------|
||-------------------|-----------------|
||o-5h7-(7)-5h7-7----|------5h7-7-7----|
||----------------0--|-(0)----------0--|


  E  E  +E  E  E  E Q    +Q   E  E  E  E Q
|----------------------|---------------------|
|----------------------|---------------------|
|----------------------|---------------------|
|----------------------|---------------------|
|-9h10-(10)-9h10-10----|------9h10-10-10-----|
|-------------------0--|-(0)-------------0---|
|
| E  E  +E  E  E  E Q    +Q   E  E  E  E Q
|----------------------|---------------------|
|----------------------|---------------------|
|----------------------|---------------------|
|----------------------|---------------------|
|-5h=7--(7)-5h=7--7----|------5h=7--7--7-----|
|-------------------0--|-(0)-------------0---|


  E  E  +E  E  E  E Q    +Q   E  E  E  E Q
|----------------------|--------------------|
|----------------------|--------------------|
|----------------------|--------------------|
|-7h=9--(9)-7h=9--9----|------7h=9--9--9----|
|----------------------|--------------------|
|-------------------0--|-(0)-------------0--|
|
| E  E  +E  E  E  E Q    +Q   E  E  E  E Q
|----------------------|--------------------|
|----------------------|--------------------|
|----------------------|--------------------|
|----------------------|--------------------|
|-9h10-(10)-9h10-10----|------9h10-10-10----|
|-------------------0--|-(0)-------------0--|


 1.
  E E +E  E E +E  E E   +E  E E +E  E E +Q
|---------------------|-----------------------||
|---------------------|----------------------o||
|---------------------|-----------------------||
|---------------------|-------------5---------||
|-5h7-(7)-5h7-(7)-5h7-|-(7)-5h7-(7)---7-(7)--o||
|---------------------|-----------------------||
|
| E E +E  E E +E  E E   +E  E E +E  E E +Q
|---------------------|-----------------------||
|---------------------|----------------------o||
|---------------------|-----------------------||
|---------------------|-----------------------||
|-5h7-(7)-5h7-(7)-5h7-|-(7)-5h7-(7)-5h7-(7)--o||
|---------------------|-----------------------||


  2.
  Gtr V
  W                      W
|---------------------|-----------------------|
|---------------------|-----------------------|
|---------------------|-----------------------|
|---------------------|-----------------------|
|---------------------|-----------------------|
|---------------------|-----------------------|
|
| Gtrs I, II
| E E +E  E E +E  E E   +E  E E +E  E E +E  E
|---------------------|-----------------------|
|---------------------|-----------------------|
|---------------------|-----------------------|
|---------------------|-----------------------|
|-5h7-(7)-5h7-(7)-5h7-|-(7)-5h7-(7)-5h7-(7)-5h|
|---------------------|-----------------------|


  W                       H         Q     E  E
|-----------------------|--------------------7-----||
|-----------------------|-------------------10b12==||
|-----------------------|--------------------------||
|-----------------------|--------------------------||
|-----------------------|--------------------------||
|-----------------------|--------------------------||
|
| E +E  E E +E  E E +E    E E +E  E E +E  E  E
|-----------------------|--------------------------||
|-----------------------|--------------------------||
|-----------------------|--------------------9-----||
|-----------------------|--------------------------||
|-7-(7)-5h7-(7)-5h7-(7)-|-5h7-(7)-5h7-(7)----7-----||
|-----------------------|-----------------0--------||


 Guitar Solo
  N.C.
                                      ~~~~~~~~~~~~~~~~~~
   +E    E      +H          E   E    +H.            +E   E
|--(7)---7------(7)---------------|------------------------|
|-(10)r-10b12==(10)r-------[8]--8-|--(8)------------(8)--7-|
|---------------------------------|----------------------8-|
|---------------------------------|------------------------|
|---------------------------------|------------------------|
|---------------------------------|------------------------|
|
|                PM--------|                PM------|
|  +E    E       E   E E E  E   E    +E   E E E E E  E   E
|---------------------------------|------------------------|
|---------------------------------|------------------------|
|--(9)---9---------------------12-|-(12)-12-------------11-|
|---------------------------------|------------------------|
|--(7)---7---------------------10-|-(10)-10--------------9-|
|----------------0---0-0-0--0-----|---------0-0-0-0--0-----|


                                                    ~~~
   +E   E E  E  +E  S  S E E   +E   E  +E  E +E  E +Q
|----------------------------|---------------------------|
|--(7)--8---10-(10)-8h10p8-7-|-(7)---------7-(7)-8-(8)---|
|--(8)--9---11-(11)-9h11p9-8-|-(8)--9--(9)-8-(8)-9-(9)---|
|----------------------------|-----10-(10)---------------|
|----------------------------|---------------------------|
|----------------------------|---------------------------|
|
|         PM-------------|              PM          PM
|  +E   E E  E   E  E    E E   +E   E   E  E  E  E  E  E
|----------------------------|---------------------------|
|----------------------------|---------------------------|
|-(11)-11------------------4-|-(4)--4---------2--------9-|
|----------------------------|-------------1-----1-------|
|--(9)--9------------------2-|-(2)--2------------------7-|
|---------0--0---0--0----0---|----------0-----------0----|


   ~~~   PM------------------------------------|
  +Q     E  E E  E  E  E    E   E  E  E E E  E  E
|------------------------|------------------------|
|-(8)-----------12-------|-----10-----------------|
|-(9)---12-11-9----12-11-|--9-----12-11-9---------|
|------------------------|----------------9-10-12-|
|------------------------|------------------------|
|------------------------|------------------------|
|
| Gtr IV
|  W                        W
|------------------------|------------------------|
|------------------------|------------------------|
|------------------------|------------------------|
|------------------------|------------------------|
|------------------------|------------------------|
|------------------------|------------------------|
|
| Gtrs I, II
|        PM--------|               PM|    PM
| +E  E  E  E E  E  E  E   +E   E  E  E E E  E  E
|------------------------|------------------------|
|------------------------|------------------------|
|-(9)-9----------------3-|-(3)--4-------4----4--5-|
|------------------------|------------------------|
|-(7)-7----------------1-|-(1)--2--2--2-2-2--2--3-|
|--------0--0-0--0--0----|------------------------|


                   PM-------|
   E   E E S  S E  E E  E    E  E E  E  E E E  E
|-------------------------|----------------------|
|-------------------------|-------------------13-|
|-------------------------|----------------------|
|-----10---9h10p9----9----|---------------9-9-10-|
|-----------------12---12-|-10--9-9-10-10--------|
|-------------------------|----------------------|
|
|  W                         H.             E  E
|-------------------------|----------------------|
|-------------------------|----------------------|
|-------------------------|-------------------14-|
|-------------------------|----------------------|
|-------------------------|-------------------12-|
|-------------------------|----------------------|
|
|        PM|       PM             PM|
| +E   E E E    E  E E  E   +E  E E  E  E E E  E
|-------------------------|----------------------|
|-------------------------|----------------------|
|-(5)--5--------5----5----|--------------------9-|
|-----------------------5-|-(5)-5-------5s9-9----|
|-(3)--3-3-3----3--3-3----|--------------------7-|
|-----------------------3-|-(3)-3-3--3--3s7-7----|


   +E   E E  E  +E   E E  E    +E   E E  E  +E   E E  E
|---------------------------|---------------------------|
|-(13)-13-x-12-(12)-12-x-10-|-(10)-10-x-13-(13)-13-x-12-|
|---------------------------|---------------------------|
|-(10)-10-x--9--(9)--9-x--7-|--(7)--7-x-10-(10)-10-x--9-|
|---------------------------|---------------------------|
|---------------------------|---------------------------|
|
|  +E   E E  E  +E   E E  E    +E   E E  E  +E   E E  E
|---------------------------|---------------------------|
|---------------------------|---------------------------|
|-(14)-14-x-12-(12)-12-x-11-|-(11)-11-x-14-(14)-14-x-12-|
|---------------------------|---------------------------|
|-(12)-12-x-10-(10)-10-x--9-|--(9)--9-x-12-(12)-12-x-10-|
|---------------------------|---------------------------|
|
|         PM-----------|              PM-----------|
|  +E   E E  E   E   E E  E    +E   E E  E   E   E E  E
|---------------------------|---------------------------|
|---------------------------|---------------------------|
|--(9)--9----------------12-|-(12)-12----------------11-|
|---------------------------|---------------------------|
|--(7)--7----------------10-|-(10)-10-----------------9-|
|---------0--0---0---0-0----|---------0--0---0---0-0----|


   +E   E E  E  +E   E E E    E  E +E  E  E  E E E
|--------------------------|-----------------------|
|-(12)-12-x-10-(10)-10-x-8-|-----7-(7)---10--------|
|--------------------------|-----------8-----8---9-|
|--(9)--9-x--7--(7)--7-x-5-|-----4-(4)-------------|
|--------------------------|---------------------7-|
|--------------------------|-------------------0---|
|
|                                      <
|                                      ~~~~~~
|  +E   E E  E  +E   E E E    E  E +E  E +H
|--------------------------|-----------------------|
|--------------------------|-----------------------|
|-(12)-12-x-11-(11)-11-x-9-|-----8-(8)-------------|
|--------------------------|-----------------------|
|-(10)-10-x--9--(9)--9-x-7-|-----6-(6)-------------|
|--------------------------|-----------7-(7)-------|
|
|         PM-----------|            PM         PM
|  +E   E E  E   E   E E E   +E  E  E  E  E  E E E
|--------------------------|-----------------------|
|--------------------------|-----------------------|
|-(11)-11----------------4-|-(4)-4--------2------9-|
|--------------------------|-----------1-----1-----|
|--(9)--9----------------2-|-(2)-2---------------7-|
|---------0--0---0---0-0---|--------0----------0---|


   ~~~
  +E   S  S  E  S  S  E  S  S  E  S  S    E   S  S  E  S  S  E  S  S  E  S  S
|--------------------------------------|--------------------------------------|
|--------------------------------------|--------------------------------17-17-|
|-(9)----------------------------------|-----16-16-16-17-17-17-19-19-19-17-17-|
|-----17-17-17-16-16-16-17-17-17-19-19-|-19--17-17-17-19-19-19-21-21-21-------|
|-(7)-19-19-19-18-18-18-19-19-19-21-21-|-21-----------------------------------|
|--------------------------------------|--------------------------------------|
|
|  ~~~
| +E   E     Q        H                   W
|--------------------------------------|--------------------------------------|
|--------------------------------------|--------------------------------------|
|--------------------------------------|--------------------------------------|
|--------------------------------------|--------------------------------------|
|--------------------------------------|--------------------------------------|
|-(7)----------------------------------|--------------------------------------|
|
|            PM---------------|                     PM|         PM
| +E   E     E  E     E  E     E  E      +E   E     E  E     E  E     E  E
|--------------------------------------|--------------------------------------|
|--------------------------------------|--------------------------------------|
|-(9)--9--------------------------3----|-(3)--4--------------4--------4--5----|
|--------------------------------------|--------------------------------------|
|-(7)--7--------------------------1----|-(1)--2-----2--2-----2--2-----2--3----|
|------------0--0-----0--0-----0-------|--------------------------------------|


                                                                     E/Bb
   E   S  S  E  S  S  E  S  S  E  S  S    E   S  S  E  S  S  E  E  E  E
|-----------------------17-17-17-19-19-|-19--20-20-20-22-22-22-24-24-22--||
|-17--19-19-19-20-20-20-19-19-19-20-20-|-20--22-22-22-24-24-24-25-25-24--||
|-17--19-19-19-21-21-21----------------|---------------------------------||
|--------------------------------------|---------------------------------||
|--------------------------------------|---------------------------------||
|--------------------------------------|---------------------------------||
|
|                                        Gtr III
|  W                                      H                  Q     E  E
|--------------------------------------|---------------------------------||
|--------------------------------------|---------------------------------||
|--------------------------------------|------------------------------3--||
|--------------------------------------|---------------------------------||
|--------------------------------------|---------------------------------||
|--------------------------------------|---------------------------------||
|
|            PM|         PM                         PM|
| +E   E     E  E     E  E     E  E      +E   E     E  E     E  E  E  E
|--------------------------------------|---------------------------------||
|--------------------------------------|---------------------------------||
|-(5)--5--------------5--------5-------|------------------------------3--||
|---------------------------------5----|-(5)--5--------------5S=4--4--2--||
|-(3)--3-----3--3-----3--3-----3-------|------------------------------1--||
|---------------------------------3----|-(3)--3-----3--3-----3S=2--2-----||


 Pre-Chorus
                                            B5
   +W                     +W
|-(22)-----------------|-(22)-----------------|
|-(24)-----------------|-(24)-----------------|
|----------------------|----------------------|
|----------------------|----------------------|
|----------------------|----------------------|
|----------------------|----------------------|
|
|  +E  E E E E +E  E E     E  E E +E  E E E E
|--------0-------------|---0--------------0---|
|------2---2---------2-|------2---------2---4-|
|--(3)-------3-(3)-3---|--------3-(3)-3-------|
|----------------------|----------------------|
|----------------------|----------------------|
|----------------------|----------------------|
|
|  +E  E E E E  E  E E    +E  E E  E  E E E E
|----------------------|----------------------|
|----------------------|----------------------|
|--(3)-3-----3-------3-|--(3)-3-------3-----4-|
|--(2)-2-----2-------2-|--(2)-2-------2-----4-|
|--(1)-1-1-1-1--1--1-1-|--(1)-1-1--1--1-1-1-2-|
|----------------------|----------------------|


                        N.C.                E/Bb
   +E   E Q   H              W
|-(22)\-------------------|-------------------|
|-(24)\-------------------|-------------------|
|-------------------------|-------------------|
|-------------------------|-------------------|
|-------------------------|-------------------|
|-------------------------|-------------------|
|
|   E   E E E E +E  +E  E    E  E E E E E E E
|---------0---------------|-----2-------------|
|-------4---4-------------|--5----5-----------|
|---4---------4-(4)-(4)-4-|---------4-------3-|
|-------------------------|-------------------|
|-------------------------|---------------0---|
|-------------------------|-----------2-3-----|
|
|                                 PM|
|  +E   E E E E  E   E  E   +E  E E E E E E E
|-------------------------|-------------------|
|-------------------------|-------------------|
|--(4)--4-----4-----------|-----------------3-|
|--(4)--4-----4-----------|-----------------2-|
|--(2)--2-2-2-2--2---2----|---------------0-1-|
|-----------------------2-|-(2)-2-2-2-2-3-----|


                                          B5
  Gtr III
  +E  E E E E +E  E E    E  E E +E  E E E E
|-------0-------------|--0--------------0---|
|-----2---2---------2-|-----2---------2---4-|
|-(3)-------3-(3)-3---|-------3-(3)-3-------|
|---------------------|---------------------|
|---------------------|---------------------|
|---------------------|---------------------|
|
| Gtrs I, II
| +E  E E E E  E  E E   +E  E E  E  E E E E
|---------------------|---------------------|
|---------------------|---------------------|
|-(3)-3-----3-------3-|-(3)-3-------3-----4-|
|-(2)-2-----2-------2-|-(2)-2-------2-----4-|
|-(1)-1-1-1-1--1--1-1-|-(1)-1-1--1--1-1-1-2-|
|---------------------|---------------------|
|
|  W                     W
|---------------------|---------------------|
|---------------------|---------------------|
|---------------------|---------------------|
|---------------------|---------------------|
|---------------------|---------------------|
|---------------------|---------------------|


                         D.S.S. al Dbl. Coda
                      D5          B/Eb      E5
                      Gtr I
   E  E E E E +E  +E  E   +E  E E E +E  E E  E
|-------0---------------|----------------------||
|-----4---4-------------|----------------------||
|--4--------4-(4)-(4)-7-|-(7)-7---8-(8)-8---12-||
|---------------------7-|-(7)-7---9-(9)-9------||
|---------------------5-|-(5)-5---6-(6)-6---10-||
|-----------------------|-------0---------0----||
|
|                     Gtr II
| +E  E E E E  E   E  E   +E  E E E +E  E E  E
|-----------------------|----------------------||
|-----------------------|----------------------||
|-(4)-4-----4---------7-|-(7)-7---8-(8)-8---12-||
|-(4)-4-----4---------7-|-(7)-7---9-(9)-9------||
|-(2)-2-2-2-2--2---2--5-|-(5)-5---6-(6)-6---10-||
|-----------------------|-------0---------0----||
|
|                                         Gtr III
|  W                       H         Q    E  E
|-----------------------|----------------------||
|-----------------------|----------------------||
|-----------------------|--------------------9-||
|-----------------------|--------------------9-||
|-----------------------|--------------------7-||
|-----------------------|----------------------||


  &&
                      G5                         A
          PM------|             PM            PM
   +E   E E E E E  E  E   +E  E E  E  +E   E  E    E
|-----------------------|-----------------------------|
|-----------------------|--------------------------8--|
|-(12)-12-------------8-|-(8)-9---11-(11)-12-------5--|
|-----------------------|-----------------------------|
|-(10)-10-------------6-|-(6)-7----9--(9)-10----------|
|---------0-0-0-0--0----|-------0-------------0-------|
|
|         PM------|             PM            PM
|  +E   E E E E E  E  E   +E  E E  E  +E   E  E    E
|-----------------------|-----------------------------|
|-----------------------|-----------------------------|
|-(12)-12-------------8-|-(8)-9---11-(11)-12-------5--|
|-----------------------|-----------------------------|
|-(10)-10-------------6-|-(6)-7----9--(9)-10-------3--|
|---------0-0-0-0--0----|-------0-------------0-------|
|
|  +H.            +E  E   +H.                +E    E
|-----------------------|-----------------------------|
|-----------------------|-----------------------------|
|--(9)------------(9)---|------------------------(14)-|
|--(9)------------(9)-5-|-(5)----------------(5)------|
|--(7)------------(7)-5-|-(5)----------------(5)-(12)-|
|---------------------3-|-(3)----------------(3)------|


                                  B5
   +E    E    E    E   +E    E  E E   +H     H
|-----------------------------------|-------------||
|--(8)---8---------7---(7)---7----7-|-(7)---------||
|--(5)---5---------5---(5)---5----4-|-(4)----8----||
|-----------------------------------|-------------||
|-------------3-----------------3---|--------6----||
|-----------------------------------|-------------||
|
|             PM                PM
|  +E    E    E    E   +E    E  E E   +W
|-----------------------------------|-------------||
|-----------------------------------|-------------||
|--(5)---5---------5---(5)---5----4-|-(4)---------||
|-----------------------------------|-------------||
|--(3)---3----3----3---(3)---3--3-2-|-(2)---------||
|-----------------------------------|-------------||
|
|                               PM
|   E    E    E    E    E    E  E E   +W
|-----------------------------------|-------------||
|-----------------------------------|-------------||
|-(14)-(14)-(14)-(14)-(14)-(14)-----|-------------||
|---------------------------------9-|-(9)---------||
|-(12)-(12)-(12)-(12)-(12)-(12)---9-|-(9)---------||
|-------------------------------8-7-|-(7)---------||


   Outro
    N.C.
    E E +E  E E E Q    +Q   E E E E Q
||-------------------|-----------------|
||o------------------|-----------------|
||-------------------|-----------------|
||-------------------|-----------------|
||o-5h7-(7)-5h7-7----|------5h7-7-7----|
||----------------0--|-(0)----------0--|
|
|   E E +E  E E E Q    +Q   E E E E Q
||-------------------|-----------------|
||o------------------|-----------------|
||-------------------|-----------------|
||-------------------|-----------------|
||o-5h7-(7)-5h7-7----|------5h7-7-7----|
||----------------0--|-(0)----------0--|


  E  E  +E  E  E  E Q    +Q   E  E  E  E Q
|----------------------|---------------------|
|----------------------|---------------------|
|----------------------|---------------------|
|----------------------|---------------------|
|-9h10-(10)-9h10-10----|------9h10-10-10-----|
|-------------------0--|-(0)-------------0---|
|
| E  E  +E  E  E  E Q    +Q   E  E  E  E Q
|----------------------|---------------------|
|----------------------|---------------------|
|----------------------|---------------------|
|----------------------|---------------------|
|-5h=7--(7)-5h=7--7----|------5h=7--7--7-----|
|-------------------0--|-(0)-------------0---|


  E  E  +E  E  E  E Q    +Q   E  E  E  E Q
|----------------------|--------------------|
|----------------------|--------------------|
|----------------------|--------------------|
|-7h=9--(9)-7h=9--9----|------7h=9--9--9----|
|----------------------|--------------------|
|-------------------0--|-(0)-------------0--|
|
| E  E  +E  E  E  E Q    +Q   E  E  E  E Q
|----------------------|--------------------|
|----------------------|--------------------|
|----------------------|--------------------|
|----------------------|--------------------|
|-9h10-(10)-9h10-10----|------9h10-10-10----|
|-------------------0--|-(0)-------------0--|


 1.
  E E +E  E E +E  E E   +E  E E +E  E E +Q
|---------------------|-----------------------||
|---------------------|----------------------o||
|---------------------|-----------------------||
|---------------------|-------------5---------||
|-5h7-(7)-5h7-(7)-5h7-|-(7)-5h7-(7)---7-(7)--o||
|---------------------|-----------------------||
|
| E E +E  E E +E  E E   +E  E E +E  E E +Q
|---------------------|-----------------------||
|---------------------|----------------------o||
|---------------------|-----------------------||
|---------------------|-----------------------||
|-5h7-(7)-5h7-(7)-5h7-|-(7)-5h7-(7)-5h7-(7)--o||
|---------------------|-----------------------||


  2.
  E E +E  E E +E  E E   +E  E E +E  E E +E  E
|---------------------|-----------------------|
|---------------------|-----------------------|
|---------------------|-----------------------|
|---------------------|-----------------------|
|-5h7-(7)-5h7-(7)-5h7-|-(7)-5h7-(7)-5h7-(7)-5h|
|---------------------|-----------------------|
|
| E E +E  E E +E  E E   +E  E E +E  E E +E  E
|---------------------|-----------------------|
|---------------------|-----------------------|
|---------------------|-----------------------|
|---------------------|-----------------------|
|-5h7-(7)-5h7-(7)-5h7-|-(7)-5h7-(7)-5h7-(7)-5h|
|---------------------|-----------------------|


                                            E5
  E +E  E E +E  E E +E    E E +E  E E +E  E E
|-----------------------|---------------------|
|-----------------------|---------------------|
|-----------------------|---------------------|
|-----------------------|-------------------2-|
|-7-(7)-5h7-(7)-5h7-(7)-|-5h7-(7)-5h7-(7)-5-2-|
|-----------------------|-------------------0-|
|
| E +E  E E +E  E E +E    E E +E  E E +E  E E
|-----------------------|---------------------|
|-----------------------|---------------------|
|-----------------------|---------------------|
|-----------------------|-------------------2-|
|-7-(7)-5h7-(7)-5h7-(7)-|-5h7-(7)-5h7-(7)-5-2-|
|-----------------------|-------------------0-|


  +E  E +E  E H      W
|------------------|------*|
|------------------|------*|
|------------------|------*|
|-(2)-2-(2)--------|------*|
|-(2)-2-(2)--------|------*|
|-(0)-0-(0)--------|------*|
|
| +E  E +E  E H      W
|------------------|------*|
|------------------|------*|
|------------------|------*|
|-(2)-2-(2)--------|------*|
|-(2)-2-(2)--------|------*|
|-(0)-0-(0)--------|------*|



Duration Legend
---------------
W - whole; H - half; Q - quarter; E - 8th; S - 16th; T - 32nd; X - 64th; a - acciaccatura
+ - note tied to previous; . - note dotted; .. - note double dotted
Uncapitalized letters represent notes that are staccato (1/2 duration)
Irregular groupings are notated above the duration line
Duration letters will always appear directly above the note/fret number it represents the
duration for.  Duration letters with no fret number below them represent rests.  Multi-
bar rests are notated in the form Wxn, where n is the number of bars to rest for.  Low
melody durations appear below the staff

Tablature Legend
----------------
 h   - hammer-on
 p   - pull-off
 b   - bend
 pb  - pre-bend
 r   - bend release (if no number after the r, then release immediately)
 /\  - slide into or out of (from/to "nowhere")
 s   - legato slide
 S   - shift slide
 - natural harmonic
[n]  - artificial harmonic
n(n) - tapped harmonic
 ~   - vibrato
 tr  - trill
 T   - tap
 TP  - trem. picking
 PM  - palm muting
\n/  - tremolo bar dip; n = amount to dip
 \n  - tremolo bar down
 n/  - tremolo bar up
/n\  - tremolo bar inverted dip
 =   - hold bend; also acts as connecting device for hammers/pulls
 <> - volume swell (louder/softer)
 x   - on rhythm slash represents muted slash
 o   - on rhythm slash represents single note slash

Misc Legend
-----------
 |  - bar
||  - double bar
||o - repeat start
o|| - repeat end
*|  - double bar (ending)
 :  - bar (freetime)
 $  - Segno
 &  - Coda
Tempo markers -  = BPM(8/16=s8/s16), where s8 = swing 8ths, s16 = swing 16ths

Related for All Against All tab