Song name
# A B C D E F G H I J K L M N O P Q R S T U V W X Y Z

Haunted - Shadow World tab

#----------------------------------PLEASE NOTE---------------------------------#
#This file is the author's own work and represents their interpretation of the #
#song. You may only use this file for private study, scholarship, or research. #
#------------------------------------------------------------------------------#

SHADOW WORLD
As recorded by The Haunted
(From the 2003 Album ONE KILL WONDER)

Transcribed by Da(e)mon
	

Words by Marco Aro Music by Anders Bjorler
Arranged by The Haunted

Gtr I (D G C F A D) - 'Untitled'
Gtr II (D G C F A D) - 'Untitled'
Gtr III (D G C F A D) - 'Untitled'

   Intro
    Q=205
    N.C.
   4/4
    Gtrs I, II
    E  E E E E E E E   E  E E E E E E E
||-------------------|------------------|
||o------------------|------------------|
||-------------------|------------------|
||-------------------|------------------|
||o---10-----6---7-9-|---10-----6---7-9-|
||--0----0-0---0-----|-0----0-0---0-----|


                     1.                   2.
  E  E E E E E E E   E  E E E  E E Q      E E E E E E Q
|------------------|-------------------||----------------|
|------------------|------------------o||----------------|
|------------------|-------------------||----------------|
|------------------|-------------------||----------------|
|---10-----9---9-6-|---12-----10---9--o||-6-9-6---6-7----|
|-8----8-8---8-----|-8----8-8----8-----||-------7-----7--|


    N.C.
    E  E E E E E E E   E  E E E E E E E
||-------------------|------------------|
||o------------------|------------------|
||-------------------|------------------|
||-------------------|------------------|
||o---10-----6---7-9-|---10-----6---7-9-|
||--0----0-0---0-----|-0----0-0---0-----|


                     1.                   2.
  E  E E E E E E E   E  E E E  E E Q      E E E E E E Q
|------------------|-------------------||------------------|
|------------------|------------------o||------------------|
|------------------|-------------------||------------------|
|------------------|-------------------||------------------|
|---10-----9---9-6-|---12-----10---9--o||-6-9-6---6-7------|
|-8----8-8---8-----|-8----8-8----8-----||-------7-----7----|


 Verse Riff
  Em            N.C.
  Gtr I
  Q   E E E E E E   +E  E E E E E E E
|-----------------|-------------------|
|-8---------------|-------------------|
|-9\--------------|-------------------|
|---------------4-|-(4)S5-----------7-|
|-7\--------------|-------------------|
|-----0-0-0-0-0-2-|-(2)S3-0-0-0-0-0-5-|
|
| Gtr II
| Q   E E E E E E   +E  E E E E E E E
|-----------------|-------------------|
|-8\--------------|-------------------|
|-9\--------------|-------------------|
|---------------4-|-(4)S5-----------8-|
|-7---------------|-------------------|
|-----0-0-0-0-0-2-|-(2)S3-0-0-0-0-0-6-|


                  G5      A5        Bb5
  +E  E E E E E E E   +E  E E E +E  E E E
|-------------------|---------------------|
|-------------------|---------------------|
|-------------------|---------------------|
|-(7)S8-------------|---------------------|
|-----------------5-|-(5)S7---7-(7)s8-----|
|-(5)S6-0-0-0-0-0-3-|-(3)S5-0-5-(5)s6-0-0-|
|
| +E  E E E E E E E   +E  E E E +E  E E E
|-------------------|---------------------|
|-------------------|---------------------|
|-------------------|---------------------|
|-(8)-8-------------|---------------------|
|-----------------5-|-(5)S7---7-(7)s8-----|
|-(6)-6-0-0-0-0-0-3-|-(3)S5-0-5-(5)s6-0-0-|


  Em            N.C.
  Q   E E E E E E   +E  E E E E E E E   +E  E E E E E E E   E E E E E E E E
|-----------------|-------------------|-------------------|-----------------|
|-8---------------|-------------------|-------------------|-----------------|
|-9\--------------|-------------------|-------------------|-----------------|
|---------------4-|-(4)S5-------------|-------------------|---------------4-|
|-7\--------------|-------------------|-----------5-------|-----------------|
|-----0-0-0-0-0-2-|-(2)S3-0-0-0-0-0-0-|-(0)-3-5-6---6-5-3-|-3p0-0-0-3-5-6-2-|
|
| Q   E E E E E E   +E  E E E E E E E   +E  E E E E E E E   E E E E E E E E
|-----------------|-------------------|-------------------|-----------------|
|-8\--------------|-------------------|-------------------|-----------------|
|-9\--------------|-------------------|-------------------|-----------------|
|---------------4-|-(4)S5-------------|-------------------|-5-------------2-|
|-7---------------|-------------------|-----------5-------|-5---------------|
|-----0-0-0-0-0-2-|-(2)S3-0-0-0-0-0-0-|-(0)-3-5-6---6-5-3-|---0-0-0-3-5-6-0-|


 Bridge 2
  N.C.                                                                    C5 E5
  +E  E E E E E E E   +E  E E E E E E E   +E  E E E E E E E   +E  E E E E Q  E
|-------------------|-------------------|-------------------|------------------|
|-------------------|-------------------|-------------------|------------------|
|-------------------|-------------5-5---|-------------------|------------------|
|-(4)-4-----4-----4-|-(4)-4-----------4-|-(4)-4-----4-----4-|-(4)-4-------5----|
|-------------------|-------------3-3---|-------------------|-------------3--2-|
|-(2)-2-2-2-2-2-2-2-|-(2)-2-2-2-2-----2-|-(2)-2-2-2-2-2-2-2-|-(2)-2-2-2-2----0-|
|
| +E  E E E E E E E   +E  E E E E E E E   +E  E E E E E E E   +E  E E E E Q  E
|-------------------|-------------------|-------------------|------------------|
|-------------------|-------------------|-------------------|------------------|
|-------------------|-------------------|-------------------|------------------|
|-(2)-4-----4-----2-|-(2)-4-------4-4-2-|-(2)-4-----4-----2-|-(2)-4-------5----|
|-------------------|-------------------|-------------------|-------------3--2-|
|-(0)-2-2-2-2-2-2-0-|-(0)-2-2-2-2-----0-|-(0)-2-2-2-2-2-2-0-|-(0)-2-2-2-2----0-|


  N.C.
  +E  E E E E E E E   +E  E E E E E E E
|-------------------|-------------------|
|-------------------|-------------------|
|-------------------|-------------5-5---|
|-----4-----4-----4-|-(4)-4-----------4-|
|-(2)---------------|-------------3-3---|
|-(0)-2-2-2-2-2-2-2-|-(2)-2-2-2-2-----2-|
|
| +E  E E E E E E E   +E  E E E E E E E
|-------------------|-------------------|
|-------------------|-------------------|
|-------------------|-------------------|
|-----4-----4-----2-|-(2)-4-------4-4-2-|
|-(2)---------------|-------------------|
|-(0)-2-2-2-2-2-2-0-|-(0)-2-2-2-2-----0-|


  +E  E E E E E E  E    W
|--------------------|-------------------|
|--------------------|-------------------|
|--------------------|-------------------|
|-(4)-4-----4--------|-------------------|
|--------------------|-------------------|
|-(2)-2-2-2-2-2-2----|-------------------|
|
| +E  E E E E E E  E   +E  E E E E E E E
|--------------------|-------------------|
|--------------------|-------------------|
|--------------------|-------------------|
|-(2)-4-----4--------|-------------------|
|--------------------|-----5-------------|
|-(0)-2-2-2-2-2-2-/6-|-(6)---6-3-5-3-2---|


 Verse 1&2
  $
  Em            N.C.
  Q   E E E E E E   +E  E E E E E E E
|-----------------|-------------------|
|-8\--------------|-------------------|
|-9\--------------|-------------------|
|---------------4-|-(4)S5-----------7-|
|-7\--------------|-------------------|
|-----0-0-0-0-0-2-|-(2)S3-0-0-0-0-0-5-|
|
| Q   E E E E E E   +E  E E E E E E E
|-----------------|-------------------|
|-8\--------------|-------------------|
|-9\--------------|-------------------|
|---------------4-|-(4)S5-----------8-|
|-7\--------------|-------------------|
|-----0-0-0-0-0-2-|-(2)S3-0-0-0-0-0-6-|


                  G5      A5        Bb5
  +E  E E E E E E E   +E  E E E +E  E E E
|-------------------|---------------------|
|-------------------|---------------------|
|-------------------|---------------------|
|-(7)S8-------------|---------------------|
|-----------------5-|-(5)S7---7-(7)S8-----|
|-(5)S6-0-0-0-0-0-3-|-(3)S5-0-5-(5)S6-0-0-|
|
| +E  E E E E E E E   +E  E E E +E  E E E
|-------------------|---------------------|
|-------------------|---------------------|
|-------------------|---------------------|
|-(8)-8-------------|---------------------|
|-----------------5-|-(5)S7---7-(7)s8-----|
|-(6)-6-0-0-0-0-0-3-|-(3)S5-0-5-(5)s6-0-0-|


  Em            N.C.                    N.C.                              Em
  Q   E E E E E E   +E  E E E E E E E   +E  E E E E E E E   E E E E E E E E
|-----------------|-------------------|-------------------|-----------------|
|-8\--------------|-------------------|-------------------|---------------8-|
|-9\--------------|-------------------|-------------------|---------------9-|
|---------------4-|-(4)S5-------------|-------------------|-----------------|
|-7\--------------|-------------------|-----------5-------|---------------7-|
|-----0-0-0-0-0-2-|-(2)S3-0-0-0-0-0-0-|-(0)-3-5-6---6-5-3-|-3p0-0-0-3-5-6---|
|
| Q   E E E E E E   +E  E E E E E E E   +E  E E E E E E E   E E E E E E E E
|-----------------|-------------------|-------------------|-----------------|
|-8\--------------|-------------------|-------------------|---------------8-|
|-9\--------------|-------------------|-------------------|---------------9-|
|---------------4-|-(4)S5-------------|-------------------|-5---------------|
|-7\--------------|-------------------|-----------5-------|-5-------------7-|
|-----0-0-0-0-0-2-|-(2)S3-0-0-0-0-0-0-|-(0)-3-5-6---6-5-3-|---0-0-0-3-5-6---|


  Em
  +E   E E E E E E E   +E  E E E E E E E
|--------------------|-------------------|
|-(8)\---------------|-------------------|
|-(9)\---------------|-------------------|
|------------------4-|-(4)S5-----------7-|
|-(7)\---------------|-------------------|
|------0-0-0-0-0-0-2-|-(2)S3-0-0-0-0-0-5-|
|
| +E   E E E E E E E   +E  E E E E E E E
|--------------------|-------------------|
|-(8)\---------------|-------------------|
|-(9)\---------------|-------------------|
|------------------4-|-(4)S5-----------8-|
|-(7)\---------------|-------------------|
|------0-0-0-0-0-0-2-|-(2)S3-0-0-0-0-0-6-|


                  G5      A5        Bb5
  +E  E E E E E E E   +E  E E E +E  E E E
|-------------------|---------------------|
|-------------------|---------------------|
|-------------------|---------------------|
|-(7)S8-------------|---------------------|
|-----------------5-|-(5)S7---7-(7)S8-----|
|-(5)S6-0-0-0-0-0-3-|-(3)S5-0-5-(5)S6-0-0-|
|
| +E  E E E E E E E   +E  E E E +E  E E E
|-------------------|---------------------|
|-------------------|---------------------|
|-------------------|---------------------|
|-(8)-8-------------|---------------------|
|-----------------5-|-(5)S7---7-(7)S8-----|
|-(6)-6-0-0-0-0-0-3-|-(3)S5-0-5-(5)S6-0-0-|


  Em            N.C.
  Q   E E E E E E   +E  E E E E E E E   +E  E E E E E E E    E  +Q.    H
|-----------------|-------------------|-------------------|-----------------|
|-8\--------------|-------------------|-------------------|-----------------|
|-9\--------------|-------------------|-------------------|--5--(5)----8----|
|---------------4-|-(4)S5-------------|-------------------|-----------------|
|-7\--------------|-------------------|-----------5-------|--3--(3)----6----|
|-----0-0-0-0-0-2-|-(2)S3-0-0-0-0-0-0-|-(0)-3-5-6---6-5-3-|-----------------|
|
| Q   E E E E E E   +E  E E E E E E E   +E  E E E E E E E    E  +Q.    H
|-----------------|-------------------|-------------------|-----------------|
|-8\--------------|-------------------|-------------------|-----------------|
|-9\--------------|-------------------|-------------------|-12-(12)---11----|
|---------------4-|-(4)S5-------------|-------------------|-----------------|
|-7\--------------|-------------------|-----------5-------|-10-(10)----9----|
|-----0-0-0-0-0-2-|-(2)S3-0-0-0-0-0-0-|-(0)-3-5-6---6-5-3-|-----------------|


   Chorus 1&2
    N.C.
    E  E E E E E E E    E   E E E E E E E
||-------------------|--------------------|
||o------------------|--------------------|
||-------------------|--------------------|
||-------------------|--------------------|
||o---10-----6---7-9-|-----10-----6---7-9-|
||--0----0-0---0-----|--0-----0-0---0-----|
|
|   W                  +W
||-------------------|--------------------|
||o------------------|--------------------|
||--9----------------|-(9)----------------|
||-------------------|--------------------|
||o-7----------------|-(7)----------------|
||-------------------|--------------------|


                     1.                   2.
  E  E E E E E E E   E  E E E  E E Q      E E E E E E Q
|------------------|-------------------||------------------|
|------------------|------------------o||------------------|
|------------------|-------------------||------------------|
|------------------|-------------------||------------------|
|---10-----9---9-6-|---12-----10---9--o||-6-9-6---6-7------|
|-8----8-8---8-----|-8----8-8----8-----||-------7-----7----|
|
| W                  W                    W
|------------------|-------------------||------------------|
|------------------|------------------o||------------------|
|-5----------------|-------------------||-8----------------|
|------------------|-7-----------------||------------------|
|-3----------------|------------------o||-6----------------|
|------------------|-5-----------------||------------------|


    N.C.
    E  E E E E E E E    E   E E E E E E E
||-------------------|--------------------|
||o------------------|--------------------|
||-------------------|--------------------|
||-------------------|--------------------|
||o---10-----6---7-9-|-----10-----6---7-9-|
||--0----0-0---0-----|--0-----0-0---0-----|
|
|   W                  +W
||-------------------|--------------------|
||o------------------|--------------------|
||--9----------------|-(9)----------------|
||-------------------|--------------------|
||o-7----------------|-(7)----------------|
||-------------------|--------------------|


                     1.                   2.
                                               To Coda
  E  E E E E E E E   E  E E E  E E Q      E E E E E E Q
|------------------|-------------------||------------------|
|------------------|------------------o||------------------|
|------------------|-------------------||------------------|
|------------------|-------------------||------------------|
|---10-----9---9-6-|---12-----10---9--o||-6-9-6---6-7------|
|-8----8-8---8-----|-8----8-8----8-----||-------7-----7----|
|
| W                  W                    W
|------------------|-------------------||------------------|
|------------------|------------------o||------------------|
|-5----------------|-------------------||-8----------------|
|------------------|-7-----------------||------------------|
|-3----------------|------------------o||-6----------------|
|------------------|-5-----------------||------------------|


   Bridge 2
    G5    E5  E5/DE5   N.C.        G5
    E E E E E E E E    E E E E E E Q
||------------------||----------------||
||o-----------------||----------------||
||------------------||----------------||
||------------------||----------------||
||o-5-----2---2---2-||-------------5--||
||--3-0-0-0-0-0-0-0-||-0-0-1p0-0-0-3--||
|
|   E E E E E E E E    E E E E E E Q
||------------------||----------------||
||o-----------------||----------------||
||------------------||----------------||
||------------------||----------------||
||o-------7---6---7-||-------------5--||
||--3p0-0---0---0---||-0-0-1p0-0-0-3--||


                     1.                 2.
                                          D.S. al Coda
  G5    E5  E5/DE5   N.C.               N.C.
  E E E E E E E E    E E E E E E Q      E E E E E E E E
|-----------------||-----------------||-------------------|
|-----------------||----------------o||-------------------|
|-----------------||-----------------||-------------------|
|-----------------||-----------------||-------------------|
|-5-----2---2---2-||----------------o||-------------------|
|-3-0-0-0-0-0-0-0-||-0-0-1p0-3S5-5---||-0-0-1p0-3S5-5-----|
|
| E E E E E E E E    E E E E E E Q      E E E E E E E E
|-----------------||-----------------||-------------------|
|-----------------||----------------o||-------------------|
|-----------------||-----------------||-------------------|
|-----------------||-----------------||-------------------|
|-------7---6---7-||----------------o||-------------------|
|-3p0-0---0---0---||-0-0-1p0-3S5-5---||-0-0-1p0-3S5-5-----|


 Guitar Break
  &
  N.C.                              Em
  Gtr III
  H    H      Q  E E Q  E  E   H    H      +H        H
|-----------|----------------|-----------|----------------|
|-----------|----------------|------8----|-(8)b9r====8----|
|-----------|----------------|------9----|-(9)b10r===9----|
|-----------|----------------|-----------|----------------|
|------7----|----------------|------7----|-(7)b8r====7----|
|-0---------|-0--7-8-0--8-10-|-0---------|----------------|


    N.C. Em     N.C.                    Em     N.C.
    Gtr I
    H    H      E E E E E E E  E   H    H      Q  Q  Q  Q
||------------|------------------|-----------|--------------|
||o-----------|------------------|-----------|--------------|
||-------9----|------------------|------9----|--------------|
||------------|------------------|-----------|----5--4--3---|
||o------7----|------------------|------7----|--------------|
||--0---------|-0---7-8-0---8-10-|-0---------|-0--3--2--1---|
|
|   Gtr II
|   H    H      E E E E E E E  E   H    H      Q  Q  Q  Q
||------------|------------------|-----------|--------------|
||o------8----|------------------|------8----|----8--7--6---|
||-------9----|------------------|------9----|----9--8--7---|
||------------|------------------|-----------|--------------|
||o------7----|------------------|------7----|--------------|
||--0---------|-0---7-8-0---8-10-|-0---------|-0------------|


  N.C. Em     N.C.
  H    H      E E E E E E E  E    W          H    H
|-----------|------------------|-----------|------------||
|-----------|------------------|-----------|-----------o||
|------9----|------------------|-----------|------------||
|-----------|------------------|-10--------|-5----9-----||
|------7----|------------------|-----------|-----------o||
|-0---------|-0---7-8-0---8-10-|--8--------|-3----7-----||
|
| H    H      E E E E E E E  E    W          H    H
|-----------|------------------|-----------|------------||
|------8----|------------------|-----------|-----------o||
|------9----|------------------|-----------|------------||
|-----------|------------------|-10--------|-5----9-----||
|------7----|------------------|-----------|-----------o||
|-0---------|-0---7-8-0---8-10-|--8--------|-3----7-----||


   Bridge 3
    N.C.                    N.C.
    E E E E E E E E  4x     E   E   E   E   E   E   E   E
||-------------------||-||-----------------------------------||
||o-----------------o||-||o---------------------------------o||
||-------------------||-||-----------------------------------||
||-------------------||-||-----------------------------------||
||o-----------------o||-||o---------------------------------o||
||--0-0-0-0-0-0-0-0--||-||--0---0---0---0---0---0---0---0----||
|
|   E E E E E E E E  4x     S S S S S S S S S S S S S S S S
||-------------------||-||-----------------------------------||
||o-----------------o||-||o---------------------------------o||
||-------------------||-||-----------------------------------||
||-------------------||-||-----------------------------------||
||o-----------------o||-||o---------------------------------o||
||--0-0-0-0-0-0-0-0--||-||--0-0-0-0-0-0-0-0-0-0-0-0-0-0-0-0--||


      N.C.
      S S S S S S S S S S S S S S S S
|-||-------------------------------------||
|-||o-----------------------------------o||
|-||-------------------------------------||
|-||-------------------------------------||
|-||o-----------------------------------o||
|-||--0-0-0-0-0-0-0-0-0-0-0-0-0-0-0-0----||
|
|     S S S S S S S S S S S S S S S S
|-||-------------------------------------||
|-||o-----------------------------------o||
|-||-------------------------------------||
|-||-------------------------------------||
|-||o-----------------------------------o||
|-||--0-0-0-0-0-0-0-0-0-0-0-0-0-0-0-0----||


 Guitar Solo
  N.C. Em     N.C.                        Em     N.C.
  H    H       E  E E E  E E E  E    H    H        Q   Q   Q  Q
|-----------|---------------------|------------|-----------------|
|-----------|---------------------|------------|-----------------|
|------9----|---------------------|-------9----|-----------------|
|-----------|---------------------|------------|-------5---4--3--|
|------7----|---------------------|-------7----|-----------------|
|-0---------|--0----7-8--0---8-10-|--0---------|---0---3---2--1--|
|
| H    H       E  E E E  E E E  E    H    H        Q   Q   Q  Q
|-----------|---------------------|------------|-----------------|
|------8----|---------------------|-------8----|-------8---7--6--|
|------9----|---------------------|-------9----|-------9---8--7--|
|-----------|---------------------|------------|-----------------|
|------7----|---------------------|-------7----|-----------------|
|-0---------|--0----7-8--0---8-10-|--0---------|---0-------------|
|
| Gtr III
| W           +Q    Q    H           W            +Q   Q   H
|-----------|---------------------|------------|-----------------|
|-----------|---------------------|------------|-----------------|
|-9---------|-(9)-------12--------|-11---------|-(11)-----14-----|
|-----------|---------------------|------------|-----------------|
|-7---------|-(7)---7---10--------|--9---------|--(9)--9--12-----|
|-----------|---------------------|------------|-----------------|


  N.C.  Em     N.C.
   H    H        E  E  E E  E E E  E    W           H    H
|------------|-----------------------|-----------|------------|
|-------8----|-----------------------|-----------|------------|
|-------9----|-----------------------|-----------|------------|
|------------|-----------------------|-10--------|--5----9----|
|-------7----|-----------------------|-----------|------------|
|--0---------|---0-----7-8--0---8-10-|--8--------|--3----7----|
|
|  H    H        E  E  E E  E E E  E    W           H    H
|------------|-----------------------|-----------|------------|
|-------8----|-----------------------|-----------|------------|
|-------9----|-----------------------|-----------|------------|
|------------|-----------------------|-10--------|--5----9----|
|-------7----|-----------------------|-----------|------------|
|--0---------|---0-----7-8--0---8-10-|--8--------|--3----7----|
|
|  W            +Q     Q    H           W           W
|------------|-----------------------|-----------|------------|
|------------|-----------------------|-----------|------------|
|-12---------|-(12)--------16--------|-17--------|-16---------|
|------------|-----------------------|-----------|------------|
|-10---------|-(10)---10---14--------|-15--------|-14---------|
|------------|-----------------------|-----------|------------|


  N.C.     Em        N.C.
  H        H         E E E E E E  E  E
|------------------|-------------------|
|------------------|-------------------|
|----------9-------|-------------------|
|------------------|-------------------|
|----------7-------|-------------------|
|-0----------------|-0---7-8-0----8-10-|
|
| H        H         E E E E E E  E  E
|------------------|-------------------|
|----------8-------|-------------------|
|----------9-------|-------------------|
|------------------|-------------------|
|----------7-------|-------------------|
|-0----------------|-0---7-8-0----8-10-|
|
| PM   PM--------|     PM-----------|
| E  E E E E E E E   E E E E E E  E  E
|------------------|-------------------|
|----------8-0-0-7-|-0-0-5-0-0---------|
|--------9---------|-----------7-------|
|------9-----------|-------------10--7-|
|-7-10-------------|-------------------|
|------------------|-------------------|


       Em                        N.C.
  H     H                         Q       Q   Q  Q
|------------------------------|---------------------|
|------------------------------|---------------------|
|-------9----------------------|---------------------|
|------------------------------|----------5---4--3---|
|-------7----------------------|---------------------|
|-0----------------------------|--0-------3---2--1---|
|
| H     H                         Q       Q   Q  Q
|------------------------------|---------------------|
|-------8----------------------|----------8---7--6---|
|-------9----------------------|----------9---8--7---|
|------------------------------|---------------------|
|-------7----------------------|---------------------|
|-0----------------------------|--0------------------|
|
| H     S  S  S  S  S  S  S  S    S  S E +H.
|------------------------------|---------------------|
|------12h13h15p13p12----------|---------------------|
|---------------------11h12h14p|=12p11p9-(9)---------|
|-9----------------------------|---------------------|
|------------------------------|---------------------|
|------------------------------|---------------------|


  N.C.    Em        N.C.
   H       H         E E  E E  E E  E  E    W               H       H
|-----------------|----------------------|----------------|--------------|
|-----------------|----------------------|----------------|--------------|
|----------9------|----------------------|----------------|--------------|
|-----------------|----------------------|-10-------------|-5-------9----|
|----------7------|----------------------|----------------|--------------|
|--0--------------|--0----7-8--0----8-10-|--8-------------|-3-------7----|
|
|  H       H         E E  E E  E E  E  E    W               H       H
|-----------------|----------------------|----------------|--------------|
|----------8------|----------------------|----------------|--------------|
|----------9------|----------------------|----------------|--------------|
|-----------------|----------------------|-10-------------|-5-------9----|
|----------7------|----------------------|----------------|--------------|
|--0--------------|--0----7-8--0----8-10-|--8-------------|-3-------7----|
|
|  Q   Q   Q   Q     Q    Q    Q    Q       Q   Q   Q  Q    W
|-----------------|------12--------------|-------------8--|--------------|
|-10------10--12--|-13--------13---12----|---------10-----|--------------|
|-----11----------|----------------------|--8--11---------|--------------|
|-----------------|----------------------|----------------|-9b11r========|
|-----------------|----------------------|----------------|--------------|
|-----------------|----------------------|----------------|--------------|


   Chorus 3
    N.C.
    Gtrs I, II
     E   E E E E E E E    E   E E E E E E E
||---------------------|--------------------|
||o--------------------|--------------------|
||---------------------|--------------------|
||---------------------|--------------------|
||o-----10-----6---7-9-|-----10-----6---7-9-|
||---0-----0-0---0-----|--0-----0-0---0-----|
|
|   Gtr III
|   +W                   +W
||---------------------|--------------------|
||o--------------------|--------------------|
||---------------------|--------------------|
||--(9)----------------|-(9)----------------|
||o--------------------|--------------------|
||---------------------|--------------------|


                       1.                     2.
   E   E E E E E E E    E   E E E  E E Q      E E E E E E Q
|--------------------|---------------------||------------------|
|--------------------|--------------------o||------------------|
|--------------------|---------------------||------------------|
|--------------------|---------------------||------------------|
|-----10-----9---9-6-|-----12-----10---9--o||-6-9-6---6-7------|
|--8-----8-8---8-----|--8-----8-8----8-----||-------7-----7----|
|
|                                             >
| +W                   +W                     W
|--------------------|---------------------||------------------|
|--------------------|--------------------o||------------------|
|--------------------|---------------------||------------------|
|-(9)----------------|-(9)-----------------||-9----------------|
|--------------------|--------------------o||------------------|
|--------------------|---------------------||------------------|


    N.C.
    E  E E E E E E E   E  E E E E E E E
||-------------------|------------------|
||o------------------|------------------|
||-------------------|------------------|
||-------------------|------------------|
||o---10-----6---7-9-|---10-----6---7-9-|
||--0----0-0---0-----|-0----0-0---0-----|


                     1.                   2.
  E  E E E E E E E   E  E E E  E E Q      E E E E E E Q
|------------------|-------------------||------------------|
|------------------|------------------o||------------------|
|------------------|-------------------||------------------|
|------------------|-------------------||------------------|
|---10-----9---9-6-|---12-----10---9--o||-6-9-6---6-7------|
|-8----8-8---8-----|-8----8-8----8-----||-------7-----7----|


 Breakdown
  N.C.  Em     N.C.                    Em     N.C.
  Gtr I
  PM
  Q  Q  H      E E E E E E E  E   H    H      Q  Q  Q  Q
|------------|------------------|-----------|-------------|
|------------|------------------|------8----|-------------|
|-------9----|------------------|------9----|-------------|
|------------|------------------|-----------|----5--4--3--|
|-------7----|------------------|------7----|-------------|
|-0----------|-0---7-8-0---8-10-|-0---------|-0--3--2--1--|
|
| Gtr II
| PM
| Q  Q  H      E E E E E E E  E   H    H      Q  Q  Q  Q
|------------|------------------|-----------|-------------|
|-------8----|------------------|------8----|----8--7--6--|
|-------9----|------------------|------9----|----9--8--7--|
|------------|------------------|-----------|-------------|
|-------7----|------------------|------7----|-------------|
|-0----------|-0---7-8-0---8-10-|-0---------|-0-----------|


  N.C. Em     N.C.
  H    H      E E E E E E E  E    W          H    H
|-----------|------------------|-----------|-----------|
|-----------|------------------|-----------|-----------|
|------9----|------------------|-----------|-----------|
|-----------|------------------|-10--------|-5----9----|
|------7----|------------------|-----------|-----------|
|-0---------|-0---7-8-0---8-10-|--8--------|-3----7----|
|
| H    H      E E E E E E E  E    W          H    H
|-----------|------------------|-----------|-----------|
|------8----|------------------|-----------|-----------|
|------9----|------------------|-----------|-----------|
|-----------|------------------|-10--------|-5----9----|
|------7----|------------------|-----------|-----------|
|-0---------|-0---7-8-0---8-10-|--8--------|-3----7----|


 Breakdown Variation
  N.C.    Em        N.C.
  E E E E E E E E   E E E E E E E  E
|-----------------|------------------|
|-----------------|------------------|
|-----------------|------------------|
|-----------------|------------------|
|-----------------|------------------|
|-0-0-0-0-0-0-0-0-|-0-0-0-0-0-0-0--0-|
|
| H       H         E E E E E E E  E
|-----------------|------------------|
|---------8-------|------------------|
|---------9-------|------------------|
|-----------------|------------------|
|---------7-------|------------------|
|-0---------------|-0---7-8-0---8-10-|


                                   Outro
                  Em                N.C.
  S S S S S S S S S S S S S S S S   Q  Q  Q  Q
|---------------------------------|--------------|
|---------------------------------|--------------|
|---------------------------------|--------------|
|---------------------------------|----5--4--3---|
|---------------------------------|--------------|
|-0-0-0-0-0-0-0-0-0-0-0-0-0-0-0-0-|-0--3--2--1---|
|
| H               H                 Q  Q  Q  Q
|---------------------------------|--------------|
|-----------------8---------------|--------------|
|-----------------9---------------|--------------|
|---------------------------------|----5--4--3---|
|-----------------7---------------|--------------|
|-0-------------------------------|-0--3--2--1---|


                              H.=H
  N.C.
                Gtrs I, II
  PM-------|
  Q  Q  Q  Q    Q  Q  Q  Q    Q  Q  Q  Q    +W
|-------------|-------------|-------------|------------|
|-------------|-------------|-------------|------------|
|-------------|-------------|-------------|------------|
|-------------|----5--4--3--|----5--4--3--|-(3)--------|
|-------------|-------------|-------------|------------|
|-0--3--2--1--|-0--3--2--1--|-0--3--2--1--|-(1)--------|


  +W           +W           +W           +W
|------------|------------|------------|--------*|
|------------|------------|------------|--------*|
|------------|------------|------------|--------*|
|-(3)--------|-(3)--------|-(3)--------|-(3)----*|
|------------|------------|------------|--------*|
|-(1)--------|-(1)--------|-(1)--------|-(1)----*|



Duration Legend
---------------
W - whole; H - half; Q - quarter; E - 8th; S - 16th; T - 32nd; X - 64th; a - acciaccatura
+ - note tied to previous; . - note dotted; .. - note double dotted
Uncapitalized letters represent notes that are staccato (1/2 duration)
Irregular groupings are notated above the duration line
Duration letters will always appear directly above the note/fret number it represents the
duration for.  Duration letters with no fret number below them represent rests.  Multi-
bar rests are notated in the form Wxn, where n is the number of bars to rest for.  Low
melody durations appear below the staff

Tablature Legend
----------------
 h   - hammer-on
 p   - pull-off
 b   - bend
 pb  - pre-bend
 r   - bend release (if no number after the r, then release immediately)
 /\  - slide into or out of (from/to "nowhere")
 s   - legato slide
 S   - shift slide
 - natural harmonic
[n]  - artificial harmonic
n(n) - tapped harmonic
 ~   - vibrato
 tr  - trill
 T   - tap
 TP  - trem. picking
 PM  - palm muting
\n/  - tremolo bar dip; n = amount to dip
 \n  - tremolo bar down
 n/  - tremolo bar up
/n\  - tremolo bar inverted dip
 =   - hold bend; also acts as connecting device for hammers/pulls
 <> - volume swell (louder/softer)
 x   - on rhythm slash represents muted slash
 o   - on rhythm slash represents single note slash

Misc Legend
-----------
 |  - bar
||  - double bar
||o - repeat start
o|| - repeat end
*|  - double bar (ending)
 :  - bar (freetime)
 $  - Segno
 &  - Coda
Tempo markers -  = BPM(8/16=s8/s16), where s8 = swing 8ths, s16 = swing 16ths

Tap to rate this tab
# A B C D E F G H I J K L M N O P Q R S T U V W X Y Z