Song name
# A B C D E F G H I J K L M N O P Q R S T U V W X Y Z

Haunted - Prosecution tab

Artist: The Haunted
Song: The Prosecution
Album: The Dead Eye
3 half steps down: C#

Guitars I & II
                        TP       TP       TP        TP       TP       TP
      W                 Q    S S Q    S S Q     S S Q    S S Q    S S E
C#||-----------------|------------------------|-------------------------|
G#||-----------------|------------------------|-------------------------|
E ||-----------------|------------------------|-------------------------|
B ||-----------------|------------------------|-------------------------|
F#||-----------------|------------------------|-------------------------|
C#||-----------------|--0------0-0------0-0---|---0-0------0-0------0-0-|
                                                             TP       TP
      W                 W                         H          Q    S S E
C#||-----------------|------------------------|-------------------------|
G#||-----------------|------------------------|-------------------------|
E ||-----------------|------------------------|-------------------------|
B ||-----------------|------------------------|-------------------------|
F#||-----------------|------------------------|-------------------------|
C#||-----------------|------------------------|--------------0------0-0-|


                                        TP       TP       TP
  E  S S S  S S  S  S S S S S S  S S    Q    S S Q    S S Q
-------------------------------------|-------------------------|
-------------------------------------|-------------------------|
-------------------------------------|-------------------------|
---------9------12-------------------|-------------------------|
-----------10------10---5-8---5-10---|-------------------------|
--L----0------0-------0-----0------0-|--6------6-6------6-3----|
                                        TP       TP       TP
  E  S S S  S S  S  S S S S S S  S S    Q    S S Q    S S Q
-------------------------------------|-------------------------|
-------------------------------------|-------------------------|
-------------------------------------|-------------------------|
---------9------12-------------------|-------------------------|
-----------10------10---5-8---5-10---|-------------------------|
--L----0------0-------0-----0------0-|--6------6-6------6-3----|



   PM PM PM PM PM PM PM TP       TP
 S S  S  S  S  S  S  S  Q    S S E    E  S S S  S S  S  S S S S S S S S
-----------------------------------|------------------------------------|
-----------------------------------|------------------------------------|
-----------------------------------|------------------------------------|
-----------------------------------|---------9------12------------------|
-----------------------------------|-----------10------10---5-8---8-7-5-|
---3--6--5--3--5--3--1--0------0-0-|--L----0------0-------0-----0-------|
   PM PM PM PM PM PM PM TP       TP
 S S  S  S  S  S  S  S  Q    S S E    E  S S S  S S  S  S S S S S S S S
-----------------------------------|------------------------------------|
-----------------------------------|------------------------------------|
-----------------------------------|------------------------------------|
-----------------------------------|---------9------12------------------|
-----------------------------------|-----------10------10---5-8---8-7-5-|
---3--6--5--3--5--3--1--0------0-0-|--L----0------0-------0-----0-------|



  TP       TP       TP        PM PM PM PM PM PM PM TP       TP
  Q    S S Q    S S Q       S S  S  S  S  S  S  S  Q    S S E
-------------------------|-------------------------------------|
-------------------------|-------------------------------------|
-------------------------|-------------------------------------|
-------------------------|-------------------------------------|
-------------------------|-------------------------------------|
--6------6-6------6-3----|----3--6--5--3--5--3--2--1------1-1--|
  TP       TP       TP        PM PM PM PM PM PM PM
  Q    S S Q    S S Q       S S  S  S  S  S  S  S  H
-------------------------|-------------------------------------|
-------------------------|-------------------------------------|
-------------------------|-------------------------------------|
-------------------------|-------------------------------------|
-------------------------|-------------------------------------|
--6------6-6------6-3----|----3--6--5--3--5--3--2--------------|



         TP       TP          TP       TP       TP
  E  S S Q    S S Q    S S    Q    S S Q    S S Q
---------------------------|-------------------------|
---------------------------|-------------------------|
---------------------------|-------------------------|
---------------------------|-------------------------|
---------------------------|-------------------------|
--L----1-1------1-0------0-|--0------0-0------0-0----|
                  TP          TP       TP       TP
  H            E  Q    S S    Q    S S Q    S S Q
---------------------------|-------------------------|
---------------------------|-------------------------|
---------------------------|-------------------------|
---------------------------|-------------------------|
---------------------------|-------------------------|
------------------0------0-|--0------0-0------0-0----|



      TP       TP       TP         PM PM PM PM PM PM PM PM
  S S Q    S S Q    S S E     E  S S  S  S  S  S  S  S  Q    S S
---------------------------|-------------------------------------|
---------------------------|-------------------------------------|
---------------------------|-------------------------------------|
---------------------------|-------------------------------------|
---------------------------|-------------------------------------|
----0-6------6-6------6-3--|--L----3--6--5--3--5--3--1--0------0-|
      TP       TP       TP         PM PM PM PM PM PM PM PM
  S S Q    S S Q    S S E     E  S S  S  S  S  S  S  S  Q    S S
---------------------------|-------------------------------------|
---------------------------|-------------------------------------|
---------------------------|-------------------------------------|
---------------------------|-------------------------------------|
---------------------------|-------------------------------------|
----0-6------6-6------6-3--|--L----3--6--5--3--5--3--1--0------0-|



   TP       TP       TP         TP       TP       TP
   Q    S S Q    S S Q      S S Q    S S Q    S S E
-------------------------|---------------------------|
-------------------------|---------------------------|
-------------------------|---------------------------|
-------------------------|---------------------------|
-------------------------|---------------------------|
--0------0-0------0-0----|----0-6------6-6------6-3--|
  TP       TP       TP          TP       TP       TP
  Q    S S Q    S S Q       S S Q    S S Q    S S E
-------------------------|---------------------------|
-------------------------|---------------------------|
-------------------------|---------------------------|
-------------------------|---------------------------|
-------------------------|---------------------------|
--0------0-0------0-0----|----0-6------6-6------6-3--|



  E  S S S S S S S S S S S S S S
---------------------------------|----||
---------------------------------|----||
---------------------------------|----||
---------------------------------|----||
---------------------3-3-3-3-3---|----||
--L----3-6-5-3-5-3-1-1-1-1-1-1---|----||

 E   S S S S S S S S S S S S S S
---------------------------------|----||
---------------------------------|----||
---------------------------------|----||
---------------------------------|----||
---------------------3-3-3-3-3---|----||
--L----3-6-5-3-5-3-1-1-1-1-1-1---|----||



Duration Legend
---------------
W - whole
H - half
Q - quarter
E - 8th
S - 16th
|-n-|  - n-tuplets


Tablature Legend
----------------
L  - tied note
NH - natural harmonic
AH - artificial harmonic
h  - hammer on
p  - pull off
b  - bend
/  - slide into from below or out of upwards
\  - slide into from above or out of downwards
~  - vibrato
TP - tremolo picking
Tap to rate this tab
# A B C D E F G H I J K L M N O P Q R S T U V W X Y Z