Song name
# A B C D E F G H I J K L M N O P Q R S T U V W X Y Z

Hausvabot - Ich Verstehe Schon tab

Hausvabot - Ich Verstehe Schon

Standard Tuning

http://www.hausvabot.de/


Intro
e|--------------------------------------------------------------------|
H|--------------------------------------------------------------------|
G|------55555----7----------------55555----7--------------------------|
D|------55555----7----33333--5----55555----7----33333333----55555555--|
A|------33333----5----33333--5----33333----5----33333333----55555555--|
E|--------------------11111--3------------------11111111----33333333--|

Verse:
e|-----------------------------------------------------|
H|-----------------------------------------------------|
G|-----55555555-----77777777---------------------------|
D|-----55555555-----77777777------33333333---55555555--|
A|-----33333333-----55555555------33333333---55555555--|
E|--------------------------------11111111---33333333--|


Chorus:
e|---------------------------------------|
H|---------------------------------------|
G|------------------------55555----------|
D|------77777-----33333---55555---55555--|
A|------77777-----33333---33333---55555--|
E|------55555-----11111-----------33333--|

Verse:
e|-----------------------------------------------------|
H|-----------------------------------------------------|
G|-----55555555-----77777777---------------------------|
D|-----55555555-----77777777------33333333---55555555--|
A|-----33333333-----55555555------33333333---55555555--|
E|--------------------------------11111111---33333333--|


Chorus:
e|---------------------------------------|
H|---------------------------------------|
G|------------------------55555----------|
D|------77777-----33333---55555---55555--|
A|------77777-----33333---33333---55555--|
E|------55555-----11111-----------33333--|

e|---------------------------------------|
H|---------------------------------------|
G|------55555----7----------------55555--|
D|------55555----7----33333--5----55555--|
A|------33333----5----33333--5----33333--|
E|--------------------11111--3-----------|

Verse:
e|-----------------------------------------------------|
H|-----------------------------------------------------|
G|-----55555555-----77777777---------------------------|
D|-----55555555-----77777777------33333333---55555555--|
A|-----33333333-----55555555------33333333---55555555--|
E|--------------------------------11111111---33333333--|


Chorus:
e|---------------------------------------|
H|---------------------------------------|
G|------------------------55555----------|
D|------77777-----33333---55555---55555--|
A|------77777-----33333---33333---55555--|
E|------55555-----11111-----------33333--|



Solo:
e|-----------------|------------------|
H|-----------------|------------------|
G|-----------------|------------------|
D|-------------2---|-2-----------2----|
A|-3-3-3-3---5---3-|---5-5-5-5-----5--|
E|-----------------|------------------|

e|-----------------|---------------------|
H|-----------------|---------------------|
G|---------------2-|-2---------2---------|
D|----3-3-3-3--5---|---5-5-5-5---5-3-2---|
A|-5---------------|-------------------5-|
E|-----------------|---------------------|

Tap to rate this tab
 
# A B C D E F G H I J K L M N O P Q R S T U V W X Y Z