Song name
# A B C D E F G H I J K L M N O P Q R S T U V W X Y Z

Have A Nice Life - Holy Fucking Shit 40000 chords

Highlighted       Show chord diagrams
Artist: Have a Nice Life
Album: Deathconsciousness
Song: Holy Fucking Shit: 40,000

http://www.myspace.com/haveanicelife

Tabbed by Samuelblitz


Tuning: Standard (EADGBe)


Chord Charts:

      Gm7      Cm     Fm     G     Ab       Eb          
 
e|-----3-------3------1------3-----4-------6------------------------|
B|-----3-------4------1------3-----4-------8------------------------|
G|-----3-------5------1------4-----5-------8------------------------|
D|-----3-------5------3------5-----6-------8------------------------|
A|-----5-------3------3------5-----6-------6------------------------|
E|-----3-------x------1------3-----4-------x------------------------|


Verse:

      Gm7            Cm 
Everything you do is planned out in advance.
          
      Fm               G                Ab Gm7
The stars push their dark wills down on you.

     Gm7                      Cm
And wolves all tear themselves apart better in packs.

       Fm                               G              Ab      Gm7 
That's just a function that we'll have to work on through.


Chorus:

        Eb                      Fm                   Ab      Gm 7    Ab   Gm7
We are machines that eat and breathe and look really cool.

       Eb              Fm                    Ab    Gm7    Ab    Gm7
You're reacting just the way I thought you would.

Eb         Gm7                    Eb Gm7
But I've replaced my heart with metal parts.

Eb                    Gm7         Eb              Gm7
And I'm working just fine, but I can't get it to start.

       Eb                Fm               Ab         Gm7      Ab   Gm7
We are machines that breathe and weep and look really good trained to kill.

Verse:

Gm7              Cm
Send me back in time and I'll bring us back in line.

Fm                   Gm7              Ab      Gm7    Ab     Gm7
Just tell me who's mother I have to kill.

Gm7                           Cm
I'm fine like I've always been, except I don't remember when

       Fm           Gm7    Ab    Gm7    
my conscience wasn't acting up again.

Chorus:

Eb         Gm7                    Eb    Gm7
But I've replaced my heart with metal parts.

Eb                  Gm7                  Eb      Gm7
And I'm working just fine, but I can't get it to start.

            Eb            Fm               Ab         Gm7      Ab   Gm7
We are machines that breathe and weep and look really good trained to kill.

Bridge:

e|--------------------------------------------------------------------|
B|--------------------------------------------------------------------|
G|--555555555555----77--88--------------------------------------------|  
D|--555555555555----77--88----55555555555555---333333333333---55--66--|
A|--333333333333----55--66----55555555555555---333333333333---55--66--|
E|----------------------------33333333333333---111111111111---33--44--|

X about 14 or so times

and then the song ends with strumming these chords:

Ab  Gm7     Eb
                      X 5
Ab  Gm7     Cm     G
Tap to rate this tab
 
# A B C D E F G H I J K L M N O P Q R S T U V W X Y Z