Song name
# A B C D E F G H I J K L M N O P Q R S T U V W X Y Z

Have A Nice Life - A Quick One Before The Eternal Worm Devours Connecticut tab

-------------------------------------------------------------------------------
   A QUICK ONE BEFORE THE ETERNAL WORM DEVOURS CONNECTICUT - Have A Nice Life
-------------------------------------------------------------------------------
Tabbed by:Slinden
E-mail:thewhyer (at) gmail.com

I've found only a few tabs of this song online.  I tried one of them and it broke my 
string trying to get to that tuning.
So, I tabbed it in standard.  Enjoy!

Tuning:Standard

For the (): You can play the open Estring or Bstring 5th fret with your pinky
e|-----------------------------------------(0)-----------|
B|-------2-----------2-----------2---------(5)-2---------|
G|-----2---2-------2---2-------2---2-------------2-------|
D|---4-------4---4-------4---4-------4---4---------4-----|
A|-5-----------5-----------5-----------5-----------------|
E|-------------------------------------------------------|

e|-------------------------------------------------------|
B|-------------------------------------------------------|
G|-------6-----------6-----------6----------7-----7------|
D|-----6---6-------6---6-------6---6------6-----6--------|
A|---7-------7---7-------7---7-------7--7-----7----------|
E|-9-----------9-----------9-----------------------------|
Tap to rate this tab
# A B C D E F G H I J K L M N O P Q R S T U V W X Y Z