Guitaretab - guitar tabs
Song name
# A B C D E F G H I J K L M N O P Q R S T U V W X Y Z

Have Heart - Bostons tab

Band: Have Heart
Song: Bostons
Album: Songs To Scream At The Sun
Tabbed Out By: Nicholas Wong - breakthesilencewakethedead@gmail.com (msn)
STANDARD TUNING

Riff 1 (Old man, i've heard some things...)
|---------------------------------------------------|
|---------------------------------------------------|
|---------------------------------------------------| x4
|-4-------5---4-------5-4---4-------5--4-------4555-|
|-2---2---3---2---2---3-2---2---2---3--2---2---2333-|
|---0-0-0--00---0-0-0-----00--0-0-0--00--0-0-0------|
    .   .  ..   .   .     ..  .   .  ..  .   .

Riff 2 (Sometimes a man breaks, sometimes he cant bend...)
|-0000000000000000-00000000------------------------|
|-0000000000000000-00000000------------------------|
|-5555555555555555-44444444-2222-2222--4--4--------|
|-5555555555555555-44444444-2222-2222--4--4--2~~---| x2
|-3333333333333333-22222222-0000-0000--2--2--2~~---|
|--------------------------------------------0~~---|

play this on the third time
|-0000000000000000-00000000---------------|
|-0000000000000000-00000000---------------|
|-5555555555555555-44444444-2222-2222-----|
|-5555555555555555-44444444-2222-2222-----| 
|-3333333333333333-22222222-0000-0000-----|
|-----------------------------------------|
[ Tab from: http://www.guitaretab.com/h/have-heart/113309.html ]
then...
Riff 3 (the fast part)
|---------------------------------------------------------------------------|
|---------------------------------------------------------------------------|
|----------------77-755-5-5-555-5-5-5-----------------77-755-5-5-5----------| x2
|-22-2-2-----55-577-755-5-5-555-5-5-5--22-2-2-----55-577-755-5-5-555-57-7-7-|
|-22-2-2-----55-555-533-3-3-333-3-3-3--22-2-2-----55-555-533-3-3-355-57-7-7-|
|-00-0-00000-33-3----------------------00-0-00000-33-3------------33-35-5-5-|
        ....                                 ....

Riff 4 (And In This City You Once Knew as hell..)
|--------------------------------|
|--------------------------------|
|-4-----5~~-------4--------------| x2
|-4--2--5~~-------4--2--2~~------|
|-2--2--3~~-------2--2--2~~------|
|----0---------------0--0~~------|

Riff 5 (I could be the man you couldn't be...)
|-------------------------------------------------0-0-0~~~~----0-0-0~~~~-----|
|-------------------------------------------------0-0-0~~~~----0-0-0~~~~-----|
|-------------------------------------------------0-0-0~~~~----5-5-5~~~~-----|
|--------------------------5-5-5------------------2-2-2~~~~----5-5-5~~~~-----|
|-2-2-2---------3-3-3------3-3-3-------2-2-2~-----2-2-2~~~~----3-3-3~~~~-----|
|-0-0-0---------0-0-0------------------0-0-0~-----0-0-0~~~~------------------|

Riff 6 (Oh, your friends say boston's beautiful)
|-000000000000000000000000000000000-00000000000000000000000000000000-|
|-000000000000000000000000000000000-00000000000000000000000000000000-|
|-000000000000000000000000000000000-55555555555555555555555555555555-| X4
|-222222222222222222222222222222222-55555555555555555555555555555555-|
|-222222222222222222222222222222222-33333333333333333333333333333333-|
|-000000000000000000000000000000000----------------------------------|

Riff 7 (There just aren't enough men like you)
|---------------------|
|---------------------|
|---------------------|
|-2-2-2----5-5-5~~~---|
|-2-2-2----3-3-3~~~---|
|-0-0-0----0-0-0~~~---|

www.myspace.com/haveheart

and

check out my band if you have the time 
http://www.myspace.com/recklesslanding
Related for Bostons tab
Advertisement will be closed in 10 seconds