Song name
# A B C D E F G H I J K L M N O P Q R S T U V W X Y Z

Have Heart - No Roses No Skies tab

Help us improve GuitareTab! Take a short survey!
No Roses, No Skies – Have Heart

Tuning - Standard

Intro/She’s a song unsung..
|---------------------------------|
|---------------------------------|
|-6-6-6-6-4-4-4-4-2-2-2-2-2-2-2-2-|
|-6-6-6-6-4-4-4-4-2-2-2-2-2-2-2-2-|
|-4-4-4-4-2-2-2-2-0-0-0-0-0-0-0-0-|
|---------------------------------|

You to be anyone..
|-------------------------|
|-------------------------|
|-2-2-2-2-2-2-2-2-2-2-2-2-|
|-2-2-2-2-2-2-2-2-2-2-2-2-|
|-0-0-0-0-0-0-0-0-0-0-0-0-|
|-------------------------|
Pm……………………………………………………………

Prince charming..
|-6-
|-6-
|-4-
|---
No roses for you..
|-2-
|-2-
|-0-
|---
So block your ears..
|-4-
|-4-
|-2-
|---
Fallen from..
|-6-
|-6-
|-4-
|---

Beautiful
      |-------------------------------------------|
      |-------------------------------------------|
      |-6-6-6-------------------------------------|
      |-6-6-6-6-7-7-7-7-7-7-7-7-7-7-7-7-7-7-7-7-7-| x5 (Let last chord ring
      |-4-4-4-6-7—7-7-7-7-7-7-7-7-7-7-7-7-7-7-7-7-|     fifth time round)
      |-------4-5-5-5-5-5-5-5-5-5-5-5-5-5-5-5-5-5-|
                Pm…………………………………………………………………………………

Alone!
|---------------------------------------------|
|---------------------------------------------|
|-6-6-6-6-6-6-6-6-6-6-9-2-2-2-2-2-2-2-2-2-2-4-|
|-6-6-6-6-6-6-6-6-6-6-9-2-2-2-2-2-2-2-2-2-2-4-| x4
|-4-4-4-4-4-4-4-4-4-4-7-0-0-0-0-0-0-0-0-0-0-2-|
|---------------------------------------------|

|-6~
|-6~
|-4~
|---
Related for No Roses No Skies tab