Song name
# A B C D E F G H I J K L M N O P Q R S T U V W X Y Z

Have Heart - The Worth tab

favorite song by have heart
help me to find the rest of the song
enjoy !

E-----------------------------------------------|
B-----------------------------------------------|
G-----------------------------------------------|
D---------------------------------5-5-5---------|
A---------------------5-5-5-5-5-5-------5-5-5-7-|
E-0-0-0-0-0-0-0-0-0-0---------------------------|

E--------------------------------------------------|
B--------------------------------------------------|
G----------------------------------7-7-7-----------|
D----------------------7-7-7-7-7-7-5-5-5-7-7-7-9---|
A-2--2--2--2--2--2--2--5-5-5-5-5-5-------5-5-5-7---|
E-0--0--0--0--0--0--0------------------------------|
 pm pm    pm pm pm

last time play:
E-------------------------------------------------|
B-------------------------------------------------|
G----------------------------------7-7-7-9-9-9----|
D----------------------7-7-7-7-7-7-5-5-5-7-7-7-9--|
A-2--2--2--2--2--2--2--5-5-5-5-5-5-------------7--|
E-0--0--0--0--0--0--0-----------------------------|
 pm pm    pm pm pm
Tap to rate this tab
# A B C D E F G H I J K L M N O P Q R S T U V W X Y Z