Song name
# A B C D E F G H I J K L M N O P Q R S T U V W X Y Z

Have Heart - Something More Than Ink tab

-------------------------------------------------------------------------------
	           Have Heart - Something More Than Ink
-------------------------------------------------------------------------------
Tabbed by:raf
Email:rafael1188@hotmail.com

*From "The Things We Carry", www.myspace.com/haveheart
*There are 2 guitars, but i worked this tab out for one guitar(mix of both).


Tuning:standard

0:02
e|---------------------------------------------------------------------------|
B|---------------------------------------------------------------------------|
G|-----------------------------------------------------7-5-10-10-10----------|
D|-2~-------------------------2~-----------------------7-5-10-10-10----------|
A|-2~-------------------------2~----------///////////--5-3-8--8--8-----------|
E|-0~-------------------------0~----------///////////------------------------|
                                         Pick scrape

0:13 Just take a...
e|---------------------------------------------------------------------------|
B|---------------------------------------------------------------------------|
G|-9------------7-5-7-7-7--9------------7-5-10-10-10-------------------------|
D|-9-2-2--2-2-2-7-5-7-7-7--9-2-2--2-2-2-7-5-10-10-10--------------4x---------|
A|-7-2-2--2-2-2-5-3-5-5-5--7-2-2--2-2-2-5-3-8--8--8--------------------------|
E|---0-0--0-0-0--------------0-0--0-0-0--------------------------------------| 
     * *  * * *              * *  * * *  

0:33 It was something inside...
e|---------------------------------------------------------------------------|
B|---------------------------------------------------------------------------|
G|---------------------------------------------------------------------------|
D|-2~-----------3--------5----2-2--2~-----------3--------5-------------------|
A|-2~--------3--------5-------2-2--2~--------3--------5----------------------|
E|-0~-----1--------3----------0-0--0~-----1--------3-------------------------|
                              * *

0:45 You chose a different path...
e|---------------------------------------------------------------------------|
B|---------------------------------------------------------------------------|
G|-9------------7-5-7-7-7--9------------7-5-10-10-10-------------------------|
D|-9-2-2--2-2-2-7-5-7-7-7--9-2-2--2-2-2-7-5-10-10-10------------2x-----------|
A|-7-2-2--2-2-2-5-3-5-5-5--7-2-2--2-2-2-5-3-8--8--8--------------------------|
E|---0-0--0-0-0--------------0-0--0-0-0--------------------------------------|
     * *  * * *              * *  * * *

0:56         
e|---------------------------------------------------------------------------|
B|---------------------------------------------------------------------------|
G|---------------------------------------------------------------------------|
D|-2--2-2-2-2--2--2-2-2-2--2--2-2-2-2--2--2-2-2-2----------------------------|
A|-2--2-2-2-2--2--2-2-2-2--2--2-2-2-2--2--2-2-2-2----------------------------|
E|-0--0-0-0-0--0--0-0-0-0--0--0-0-0-0--0--0-0-0-0----------------------------|
      * * * *     * * * *     * * * *     * * * *

1:01   Because I don't believe in what was said...
e|---------------------------------------------------------------------------|
B|---------------------------------------------------------------------------|
G|-9--9-9-9--7--7-7-7--5--5-5-5--7--7-7-7--5-7-------------------------------|
D|-9--9-9-9--7--7-7-7--5--5-5-5--7--7-7-7--5-7---2--2-2-2-2--2--2-2-2-2---4x-|
A|-7--7-7-7--5--5-5-5--3--3-3-3--5--5-5-5--3-5---2--2-2-2-2--2--2-2-2-2------|
E|-----------------------------------------------0--0-0-0-0--0--0-0-0-0------|
      * * *     * * *     * * *     * * *           * * * *     * * * *

1:19 ...it was something inside...
e|---------------------------------------------------------------------------|
B|---------------------------------------------------------------------------|
G|---------------------------------------------------------------------------|
D|-2~-----------3--------5----2-2--2~-----------3--------5-------------------|
A|-2~--------3--------5-------2-2--2~--------3--------5----------------------|
E|-0~-----1--------3----------0-0--0~-----1--------3-------------------------|


e|---------------------------------------------------------------------------|
B|---------------------------------------------------------------------------|
G|---------------------------------------------------------------------------|
D|-2-2--2~------------3--------5----2-2--2~-----------3--------5---2---------|
A|-2-2--2~---------3--------5-------2-2--2~--------3--------5------2---------|
E|-0-0--0~-----1---------3----------0-0--0~-----1--------3---------0---------|

1:43 something more than ink...!
e|---------------------------------------------------------------------------|
B|---------------------------------------------------------------------------|
G|--9-9-9-12-12-12-10---------------5-5-5-7-7-7-9-9-9------------------------|
D|--9-9-9-12-12-12-10-2--2-2-2-2-2--5-5-5-7-7-7-9-9-9-2--2-2-2-2-2-----------|
A|--7-7-7-10-10-10-8--2--2-2-2-2-2--3-3-3-5-5-5-7-7-7-2--2-2-2-2-2-----------|
E|--------------------0--0-0-0-0-0--------------------0--0-0-0-0-0-----------|
                         * * * * *                       * * * * *

| * palm mute
| /  slide up
| \  slide down
| h  hammer-on
| p  pull-off
| ~  vibrato
| +  harmonic
| x  Mute note
===============================================================================
Tap to rate this tab
# A B C D E F G H I J K L M N O P Q R S T U V W X Y Z