Guitaretab - guitar tabs
Song name
# A B C D E F G H I J K L M N O P Q R S T U V W X Y Z

Havok In Hollywood - 99 Ways To Fly tab

hey guys, sam cunard here.

I manage Havok's fanpage, go check it out at www.myspace.com/havokinhollywoodfanpage


ya man

here is a great track on their self titled album:

h- hammer on
p- pull off
/- slide

high to low:

Intro Pt.1
Eb------------------------------------------------------|
Bb------------------------------------------------------|
Gb---2-------2--5/4--2-------2h4p2----------------------|
Db---2-------2--5/4--2-------2h4p2----------------------|
Ab---0--2h3--0-------0--2h3-----------------------------|
Eb------------------------------------------------------|

[ Tab from: http://www.guitaretab.com/h/havok-in-hollywood/87431.html ]
Intro Pt.2
Eb-------------------------------------------------------|
Bb-------------------------------------------------------|
Gb-------------------------------2-----------------------|
Db---7-- 9-- 10--- 9-7----9---2h4-2----------------------|
Ab---5-5-5-5-5--5-5-5-- 5-5------------------------------|
Eb-------------------------------------------------------|

The second time through part 1 is the same but part 2 changes a bit at the end. After 
power chords it changes to this....

Eb-------------------------------------------------------|
Bb-------------------------------------------------------|
Gb----------------------------5/8p7p5h7p5----------------|
Db----------------------------5/8p7p5h7p5----------------|
Ab-------------------------------------------------------|
Eb-------------------------------------------------------|


thanks again guys!

-Sam Cunard
Related for 99 Ways To Fly tab
Advertisement will be closed in 10 seconds