Song name
# A B C D E F G H I J K L M N O P Q R S T U V W X Y Z

Havok - Morbid Symmetry tab

			     Morbid Symmetry- Havok                         
Tabbed by: Wyatt Postlethwaite
Email: w_pwaite@hotmail.com

Tuning:Standard

e|---------------------------------------------------------------------------|
B|---------------------------------------------------------------------------|   Natural Harmonic
G|--------------------------------------------------5------------------------|
D|---2----5--4--3--2-----0--3-3-2---5--4--3--2-------------------------------|
A|---2----5--4--3--2-----0--3-3-2---5--4--3--2-------------------------------|
E|---0----3--2--1--0----------------3--2--1--0-------------------------------|




Same Basic Riff with faster picking and these chords instead of harmonic
e|---------------------------------------------------------------------------|
B|---------------------------------------------------------------------------|
G|---------------------------------------------------------------------------|
D|---7-7-7-------------------------------------------------------------------|
A|---5-5-5---8-8-8-----------------------------------------------------------|
E|-----------6-6-6-----------------------------------------------------------|



************************************

| /   slide up
| \   slide down
| h   hammer-on
| p   pull-off
| ~   vibrato
| +   harmonic
| x   Mute note
| b   Bend
| pb  Pre-bend
| br  Bend release
| pbr Pre-bend release
| brb Bend release bend

************************************
Tap to rate this tab
 
# A B C D E F G H I J K L M N O P Q R S T U V W X Y Z