Song name
# A B C D E F G H I J K L M N O P Q R S T U V W X Y Z

Havok - No Amnesty tab

Havok - No Amnesty

Album: "Time Is Up" (2011)
Tabbed by: TerrorMetal	
Email: gdreater@hotmail.com

Tuning: E


Riff 1
e|----------------------------------|
B|----------------------------------|
G|--3---------------2---------------|
D|--3---------------2-------5---3---|
A|--1---------------0-------5---3---|
E|--------------------------3---1---|


Riff 2
Guitar 1
e|----------------------------------------------|
B|----------------------------------------------|
G|----------------------------------------------|
D|----------------------------------------------|
A|-----7h8p7h8----5h7p5h7----3h5p3h5------------|
E|-0000-------0000-------0000-------00001h3p1h3-|
   ****       ****       ****       ****

e|----------------------------------------------|
B|----------------------------------------------|
G|----------------------------------------------|
D|----------------------------------------------|
A|-----7h8p7h8----5h7p5h7----3h5p3h5----3-------|
E|-0000-------0000-------0000-------0-0-1-------|
   ****       ****       ****       * *  

Guitar 2
e|----------------------------------------------|
B|----------------------------------------------|
G|----------------------------------------------|
D|-2--------------------------------------------|
A|-2--------------------------------------------|
E|-0--------------------------------------------|


Riff 3
e|----------------------------------------------|
B|----------------------------------------------|
G|----------------------------------------------|
D|----------------------------------------------|
A|-----7h8p7h8----5h7p5h7----3h5p3h5------------|
E|-0000-------0000-------0000-------00001h3p1h3-|
   ****       ****       ****       ****

e|----------------------------------------------|
B|----------------------------------------------|
G|----------------------------------------------|
D|--------------------------------------3-------|
A|-----7h8p7h8----5h7p5h7----3h5p3h5----3-------|
E|-0000-------0000-------0000-------0-0-1-------|
   ****       ****       ****       * *  


e|----------------------------------------------|
B|----------------------------------------------|
G|----------------------------------------------|
D|-(3)------------------------------------------|
A|-(3)----------------------------------3-------|
E|-(1)------------------------------0-0-1-------|
                                    * *

Riff 4
e|----------------------------------------------|
B|----------------------------------------------|
G|----------------------------------------------|
D|----------------------------------------------|
A|-----7h8p7h8----5h7p5h7----3h5p3h5------------|
E|-0000-------0000-------0000-------00001h3p1h3-|
   ****       ****       ****       ****

e|----------------------------------------------|
B|----------------------------------------------|
G|----------------------------------------------|
D|----------------------------------------------|
A|-----7h8p7h8----5h7p5h7----3h5p3h5----3-------|
E|-0000-------0000-------0000-------0-0-1-------|
   ****       ****       ****       * *  

e|----------------------------------------------|
B|----------------------------------------------|
G|----------------------------------------------|
D|----------------------------------------------|
A|-----7h8p7h8----5h7p5h7----3h5p3h5------------|
E|-0000-------0000-------0000-------00001h3p1h3-|
   ****       ****       ****       ****

e|----------------------------------------------|
B|----------------------------------------------|
G|----------------------------------------------|
D|--------------------------------------3-------|
A|-----7h8p7h8----5h7p5h7----3h5p3h5----3-------|
E|-0000-------0000-------0000-------0-0-1-------|
   ****       ****       ****       * *  


Riff 5
e|----------------------------------|
B|----------------------------------|
G|----------------------------------|
D|-55555555555555555555555566663333-|
A|-55555555555555555555555566663333-|
E|-33333333333333333333333344441111-|


Riff 6
Guitar 1
e|-----------------------------------------|
B|-----------------------------------------|
G|-----------------------------------------|
D|-----------------------------------------|
A|-8---5h7---8---5h7---8---5h7---8---5h7h8-|
E|---0-----0---0-----0---0-----0---0-------|
     *     *   *     *   *     *   *

Guitar 2
e|-----------------------------------------|
B|-----------------------------------------|
G|-----------------------------------------|
D|-10--7h9--10---7h9--10---7h9--10--7h9h10-|
A|-----------------------------------------|
E|---0-----0---0-----0---0-----0---0-------|
     *     *   *     *   *     *   *

Riff 7
e|-------------------------------------------------|
B|-------------------------------------------------|
G|-------------------------------------------------|
D|-------------------------------------------------|
A|---4--3---5--4---6--5-------4--3---5--4----------|
E|-0-2--1-0-3--2-0-4--3-00000-2--1-0-3--2-00000000-|
   *      *      *      *****      *      ********

e|-------------------------------------------------|
B|-------------------------------------------------|
G|-------------------------------------------------|
D|-------------------------------------------------|
A|---4--3---5--4---6--5------4-3-5-4-6-------------|
E|-0-2--1-0-3--2-0-4--3-0000-2-1-3-2-4-------------|
   *      *      *      ****

Riff 8
e|----------------------------------------------|
B|----------------------------------------------|
G|----------------------------------------------|
D|----------------------------------------------|
A|-----7h8p7h8----5h7p5h7----3h5p3h5------------|
E|-0000-------0000-------0000-------00001h3p1h3-|
   ****       ****       ****       ****

e|----------------------------------------------|
B|----------------------------------------------|
G|----------------------------------------------|
D|----------------------------------------------|
A|-----7h8p7h8----5h7p5h7----3h5p3h5----3-------|
E|-0000-------0000-------0000-------0-0-1-------|
   ****       ****       ****       * *  

e|----------------------------------------------|
B|----------------------------------------------|
G|----------------------------------------------|
D|----------------------------------------------|
A|-----7h8p7h8----5h7p5h7----3h5p3h5------------|
E|-0000-------0000-------0000-------00001h3p1h3-|
   ****       ****       ****       ****

e|----------------------------------------------|
B|----------------------------------------------|
G|----------------------------------------------|
D|------------------------7-------------3-------|
A|-----7h8p7h8----5h7p5h7-5-------------3-------|
E|-0000-------0000------------------0-0-1-------|
   ****       ****                  * *  

Riff 9
e|-----------------------------------|
B|-----------------------------------|
G|-----------------------------------|
D|---------------4---3---------------|
A|-----5---4-----2---1---1h2p1---1---|
E|-0-0-3-0-2-0-0---0---0-------3---3-|
   * *   *   * *   *   *

e|-----------------------------------|
B|-----------------------------------|
G|-----------------------------------|
D|---------------4---3---------------|
A|-----5---4-----2---1---1h2p1---1---|
E|-0-0-3-0-2-0-0---0---0-------3-----|
   * *   *   * *   *   *

Riff 10
e|-----------------------------------------------|
B|-----------------------------------------------|
G|-4-4---------------5-5---4-4-------------------|
D|-4-4---7-7---3-3---5-5---4-4---7-7---3-3-------|
A|-2-2---7-7---3-3---3-3---2-2---7-7---3-3-------|
E|-------5-5---1-1---------------5-5---1-1-------|


Riff 11
e|-----------------------------------|
B|-----------------------------------|
G|-----------------------------------|
D|---------------4---3---------------|
A|-----5---4-----2---1---1h2p1---1---|
E|-0-0-3-0-2-0-0---0---0-------3---3-|
   * *   *   * *   *   *

e|-----------------------------------|
B|-----------------------------------|
G|-----------------------------------|
D|---------------4---3---------------|
A|-----5---4-----2---1-2-------------|
E|-0-0-3-0-2-0-0---0---0-------------|
   * *   *   * *   *   


Song Structure

Riff 1
Riff 2
Riff 3
Riff 4  (2 Times)
Riff 5  (2 Times)
Riff 6
Riff 7
Riff 8
Riff 4  
Riff 5  (2 Times)
Riff 6
Riff 7
Riff 9  (6 Times)
Riff 5  (2 Times)
Riff 10 (2 Times)
Riff 7
Riff 4
Riff 8
Riff 4
Riff 5  (2 Times)
Riff 6
Riff 7
Riff 9  (3 Times)
Riff 11
Tap to rate this tab
 
# A B C D E F G H I J K L M N O P Q R S T U V W X Y Z